Guttermouth - Im Destroying The World Chords & Tabs

 

Im Destroying The World Chords & Tabs

Guttermouth Chords & Tabs

Version: 1 Type: Tab 0 ratings
1 star 2 stars 3 stars 4 stars 5 stars
comments

Im Destroying The World Tab

-----------------------------------------------------------------------------
			 I'm Destroying the World - Guttermouth
-----------------------------------------------------------------------------

By: Robin Krier 

  Intro			 x3						     x4
e|------------------------|--------------------------------|-------------------|
B|--------9-----10-----10-|--------9-x-x-------------------|-4-5-6-6-6-6-6-6-6-|
D|-7------9-x-x-10-----10-|-7-x-x--9-x-x-10-10-10-10-10-10-|-5-6-7-7-7-7-7-7-7-|
A|-7-x-x--7-x-x-10-x-x--8-|-7-x-x--7-x-x-10-10-10-10-10-10-|-5-6-7-7-7-7-7-7-7-|
E|-5-x-x---------8-x-x----|-5-x-x---------8--8--8--8--8--8-|-3-4-5-5-5-5-5-5-5-|
[ Tab from: http://www.guitartabs.cc/tabs/g/guttermouth/im_destroying_the_world_tab.html ]
  verse "Hey Mark..."						   x4
e|--5-x-5-x-5-x-5-x-5-x-5-x-5-x-5-x-|--------------------------------|
B|--5-x-5-x-5-x-5-x-5-x-5-x-5-x-5-x-|--------------------------------|
G|----------------------------------|-7--7--7-7-7--------------------|
D|----------------------------------|-7--7--7-7-7--5--6--7--7--7-7-7-|
A|----------------------------------|-5--5--5-5-5--5--6--7--7--7-7-7-|
E|----------------------------------|--------------3--4--5--5--5-5-5-|

 chorus "I'm destoying the world..."
e|------------------------|-------------------|------------------------------|
B|----------------------x4|-------------------|------------------------------|
G|-7--7-7-----------------|-4--5--6--6--6-6-6-|-4--5-------------------------|
D|-7--7-7-5--5-5--7-7-7-7-|-5--6--7--7--7-7-7-|-5--6-------------------------|
A|-5--5-5-5--5-5--7-7-7-7-|-5--6--7--7--7-7-7-|-5--6-------------------------|
E|--------3--3-3--5-5-5-5-|-3--4--5--5--5-5-5-|-3--4-------------------------|

  verse, chorus, intro, BANJO SOLO (Good Lord, if you can figure this out, more
  freakin' power to ya!), chorus, intro
Comments