Guttermouth - I Wont See You In The Pit Chords & Tabs

 

I Wont See You In The Pit Chords & Tabs

Guttermouth Chords & Tabs

Version: 2 Type: Tab 0 ratings
1 star 2 stars 3 stars 4 stars 5 stars
comments

I Wont See You In The Pit Tab

-----------------------------------------------------------------------------
			I WON'T SEE YOU IN THE PIT - Guttermouth
-----------------------------------------------------------------------------

By: Robin Krier 
Album: Covered With Ants

  Intro      x4  Verse "Listen to me..."				    x2
e|-------------|--------------------------------------------------------------|
B|-------------|--------------------------------------------------------------|
G|-4-4--4------|-4-4--4-------4-4--4------4-4--4------------------------------|
D|-4-4--4-5--7-|-4-4--4-5--7--4-4--4-5--7-4-4--4-5--7--4-4--4-4--4-4--4-4-----|
A|-2-2--2-5--7-|-2-2--2-5--7--2-2--2-5--7-2-2--2-5--7--4-4--4-4--4-4--4-4-----|
E|--------3--5-|--------3--5---------3--5--------3--5--2-2--2-2--2-2--2-2-----|
[ Tab from: http://www.guitartabs.cc/tabs/g/guttermouth/i_wont_see_you_in_the_pit_tab_ver_2.html ]
  Chorus - "To you your cause is valid..."
e|---------------------------------------------------------------|
B|---------------------------------------------------------------|
G|--------7-7--7----------4-4--4---------7-7--7------------------|
D|-4-4--4-7-7--7-7-7--7-7-4-4--4--5-5--5-7-7--7--7-7-7-7-7-7-7-7-|
A|-4-4--4-5-5--5-7-7--7-7-2-2--2--5-5--5-5-5--5--7-7-7-7-7-7-7-7-|
E|-2-2--2--------5-5--5-5---------3-3--3---------5-5-5-5-5-5-5-5-|

e|-----------------------------------------------|
B|-----------------------------------------------|
G|--------7-7--7----------4-4--4---------7-7--7--|
D|-4-4--4-7-7--7-7-7--7-7-4-4--4--5-5--5-7-7--7--|
A|-4-4--4-5-5--5-7-7--7-7-2-2--2--5-5--5-5-5--5--|
E|-2-2--2--------5-5--5-5---------3-3--3---------|

 After 1st chorus repeat intro while playing this over it x4
e|------------------|
B|-12-12--12--------|
G|-11-11--11--11b---|
D|------------------|
A|------------------|
E|------------------|

 verse and chorus

 then this...      x6
e|-------------------|-------------------|
B|-------------------|-------------------|
G|-4-4-4-4-----------|-------------------|
D|-4-4-4-4-5-5-5-5-5-|-7-7-7-7-7-7-7-7---|
A|-2-2-2-2-5-5-5-5-5-|-7-7-7-7-7-7-7-7---|
E|---------3-3-3-3-3-|-5-5-5-5-5-5-5-5---|
 PM|-------------------------------------|

chorus, then chorus with lead over it, mix with chives,
saute', and serve hot
Comments