Guttermouth - Hit Machine Chords & Tabs

 

Hit Machine Chords & Tabs

Guttermouth Chords & Tabs

Version: 1 Type: Bass Tab 0 ratings
1 star 2 stars 3 stars 4 stars 5 stars
comments

Hit Machine Bass Tab

Song:  Hit Machine
Band:  GutterMouth
Album: Gorgeous
Tabbed By:poncho phil

/=slide down 
\=slide up
x=mute

Intro
G|--------------------------------------------------------|
D|--------------------------------------------------------|
A|-9-9-9-9\---9-9-9-9\---9-9-9-9\-------------------------|
E|------------------------------------7-7-7-7\---7--7-7\--|

Chorus x4 "Here we GO!"
G|-----------------------------------|
D|-----------------------------------|
A|-2--2-2/55--------8-8-7-7-5-x-2-2--|
E|-----------5-5--5------------------|
[ Tab from: http://www.guitartabs.cc/tabs/g/guttermouth/hit_machine_btab.html ]
Verse
G|(x3)----------------------------|(x1)-----------------------------|
D|--------------------------------|---------------------------------|
A|-2--2--2--2-0-2-0-2--2--2---0-1-|-2--2--2--2-0-2-0--2---0-1-2-----|
E|--------------------------------|---------------------------------|

(Chorus x4)

Verse

(Chorus x4)

Then end with this x2
G|---------------------------------------|
D|---------------------------------------|
A|-2--2-2-5-5-2-2--2-5-5-2-2--2-5-5-6-7--|
E|---------------------------------------|

G|--------------------------------------|
D|--------------------------------------|
A|-2--2-2-5-5-2-2--2-5-5-2-2--2-2-0-1-2-|
E|--------------------------------------|

or you can play it like this

G|----------------------------------------|
D|----------------------------------------|
A|--------5--------5---------5-6-7--------|
E|-7-7-77--7-7-77----7-7-77---------------|

G|----------------------------------------|
D|----------------------------------------|
A|--------5--------5----------------------|
E|-7-7-77--7-7-77----7-7-77--5-6-7--------|
Comments