Guttermouth - Good Friday Chords & Tabs

 

Good Friday Chords & Tabs

Guttermouth Chords & Tabs

Version: 2 Type: Tab 0 ratings
1 star 2 stars 3 stars 4 stars 5 stars
comments

Good Friday Tab

***********************************************
***Artist: Guttermouth                      ***
***Song: Good Friday                        ***
***Album: Musical Monkey                    ***
***Tunning: Standard                        ***
***By: Victor Aguilar                       ***
***The_Dark_Powerful_And_Evil_Lord@yahoo.com***
***www.junkmonkey.cjb.net                   ***
***********************************************
One day I was watching the movie JACK and eating a bag 
of Salsa Verde Doritos Chips. In the movie they were 
making fun of Jack which made me really sad. So sad it
inspired me to tab this song. Email me if you have any 
corrections, or if you want to send me a bag of Salsa
Verde Doritos Chips.
Have Fun...

( ):  harmonic note
  \:  slide down  
  /:  slide up 
  x:  mute
 PM: palm mute, "." under note to palm mute on

INTRO:
|-----|
|-----| X4
|-----|
|-(5)-|
|-(5)-|
|-(3)-|

[ Tab from: http://www.guitartabs.cc/tabs/g/guttermouth/good_friday_tab_ver_2.html ]
VERSE:
|----------------------------|
|----------------------------| X4
|--------------------------5-|
|-5-5--5-5-5--5-5-5--5-5-5-5-|
|-5-5--5-5-5--5-5-5--5-5-5-3-|
|-3-3--3-3-3--3-3-3--3-3-3---|


NEXT PART:
|------------|
|------------| X4
|-5----------|
|-5-5--5-3-5-|
|-3-5--5-3-5-|
|---3--3-1-3-|


VERSE:
|----------------------------|
|----------------------------| X4
|--------------------------5-|
|-5-5--5-5-5--5-5-5--5-5-5-5-|
|-5-5--5-5-5--5-5-5--5-5-5-3-|
|-3-3--3-3-3--3-3-3--3-3-3---|


NEXT PART AGAIN:
|------------|    |---|
|------------| X4 |---|
|-5----------|    |---|
|-5-5--5-3-5-|    |-5-|
|-3-5--5-3-5-|    |-5-|
|---3--3-1-3-|    |-3-|


VERSE:
BEGIN WITH
|-----|----------------------------|
|-----|----------------------------| X3
|-5---|--------------------------5-|
|-5-5-|-5-5--5-5-5--5-5-5--5-5-5-5-|
|-3-5-|-5-5--5-5-5--5-5-5--5-5-5-3-|
|---3-|-3-3--3-3-3--3-3-3--3-3-3---|


NEXT PART AGAIN:
|------------|
|------------| X8
|-5----------|
|-5-5--5-3-5-|
|-3-5--5-3-5-|
|---3--3-1-3-|


ENDING:
|---| USE THIS CHORD FOR THE REST OF 
|---| THE SONG. USE BENDS AND STUFF
|-5-| TO MAKE IT SOUND GOOD.
|-5-|
|-3-|
|---|

THAT'S IT.
Comments