Guttermouth - Gold Chords & Tabs

 

Gold Chords & Tabs

Guttermouth Chords & Tabs

Version: 2 Type: Tab 0 ratings
1 star 2 stars 3 stars 4 stars 5 stars
comments

Gold Tab

***********************************************
***Artist: Guttermouth                      ***
***Song: Gold                               ***
***Album: Musical Monkey                    ***
***Tunning: Standard                        ***
***By: Victor Aguilar                       ***
***The_Dark_Powerful_And_Evil_Lord@yahoo.com***
***www.junkmonkey.cjb.net                   ***
***********************************************

( ):  harmonic note
  \:  slide down  
  /:  slide up 
  x:  mute
 PM: palm mute, "." under note to palm mute on

INTRO:
|-------------------------------------------------------------|
|-------------------------------------------------------------|
|-------------------------------------------------------------|
|-8-8--8-8-8--8-8-8--8-8-8--8-8-8--8-8-8--8-8-8--8-8-8--8-8-8-|
|-8-8--8-8-8--8-8-8--8-8-8--8-8-8--8-8-8--8-8-8--8-8-8--8-8-8-|
|-6-6--6-6-6--6-6-6--6-6-6--6-6-6--6-6-6--6-6-6--6-6-6--6-6-6-|


VERSE:
|---------------------------|
|---------------------------| X3
|--------------6------------|
|-8-4--4-4-4-4-6-6-8--8-8-8-|
|-8-4--4-4-4-4-4-6-8--8-8-8-|
|-6-2--2-2-2-2---4-6--6-6-6-|

|-----------------|
|-----------------| 
|--------------6--|
|-8-4--4-4-4-4-6--|
|-8-4--4-4-4-4-4--|
|-6-2--2-2-2-2----|

|--------------------------------------|
|--------------------------------------| X2
|-----------6--6-6--6----------6-8-6---|
|-8--8-8--8-6--6-6--6-8--8-8-8-6-8-6-6-|
|-8--8-8--8-4--4-4--4-8--8-8-8-4-6-4-6-|
|-6--6-6--6-----------6--6-6-6-------4-|
[ Tab from: http://www.guitartabs.cc/tabs/g/guttermouth/gold_tab_ver_2.html ]
|---------------------------|
|---------------------------| X3
|--------------6------------|
|-8-4--4-4-4-4-6-6-8--8-8-8-|
|-8-4--4-4-4-4-4-6-8--8-8-8-|
|-6-2--2-2-2-2---4-6--6-6-6-|

|-----------------|
|-----------------| 
|--------------6--|
|-8-4--4-4-4-4-6--|
|-8-4--4-4-4-4-4--|
|-6-2--2-2-2-2----|

|--------------------------------------|
|--------------------------------------| X2
|-----------6--6-6--6----------6-8-6---|
|-8--8-8--8-6--6-6--6-8--8-8-8-6-8-6-6-|
|-8--8-8--8-4--4-4--4-8--8-8-8-4-6-4-6-|
|-6--6-6--6-----------6--6-6-6-------4-|

|---------------------------|
|---------------------------| X3
|--------------6------------|
|-8-4--4-4-4-4-6-6-8--8-8-8-|
|-8-4--4-4-4-4-4-6-8--8-8-8-|
|-6-2--2-2-2-2---4-6--6-6-6-|

|-----------------|
|-----------------| 
|--------------6--|
|-8-4--4-4-4-4-6--|
|-8-4--4-4-4-4-4--|
|-6-2--2-2-2-2----|

|--------------------------------------|
|--------------------------------------| X2
|-----------6--6-6--6----------6-8-6---|
|-8--8-8--8-6--6-6--6-8--8-8-8-6-8-6-6-|
|-8--8-8--8-4--4-4--4-8--8-8-8-4-6-4-6-|
|-6--6-6--6-----------6--6-6-6-------4-|


NEXT PART:
|-------------------------------|
|-------------------------------| X2
|-----------6-------------------|
|-8--8-8--8-6--6--4--6--6--8--8-|
|-8--8-8--8-4--6--4--6--6--8--8-|
|-6--6-6--6----4--2--4--4--6--6-|


OUTRO:
|---------------------------|
|---------------------------|
|--------------6------------|
|-8-4--4-4-4-4-6-6-8--8-8-8-|
|-8-4--4-4-4-4-4-6-8--8-8-8-|
|-6-2--2-2-2-2---4-6--6-6-6-|

|---------------|------------|
|---------------|------------|
|---------------|-6----------|
|-8-4--4-4-4-4--|-6--6--8--8-|
|-8-4--4-4-4-4--|-4--6--8--8-|
|-6-2--2-2-2-2--|----4--6--6-|

THATS IT.
Comments