Guttermouth - Generous Portions Chords & Tabs

 

Generous Portions Chords & Tabs

Guttermouth Chords & Tabs

Version: 2 Type: Bass Tab 0 ratings
1 star 2 stars 3 stars 4 stars 5 stars
comments

Generous Portions Bass Tab

--------------------------------------------------------
GENEROUS PORTIONS / Guttermouth
--------------------------------------------------------

By: Carlos Pino

G|-------------------------------------|
D|-------------------------------------|
A|-0-0-0-----3-3-3---------------------|
E|----------------------3-3-3-----2-2-2-|
[ Tab from: http://www.guitartabs.cc/tabs/g/guttermouth/generous_portions_btab_ver_2.html ]
G|----------------|
D|----------------|
A|-0-0--0-3-------|
E|-------------3-3---|

chorus:
G|----------------------------|
D|---------------------------------|
A|-2-2--2-5-5-----------------|
E|---------------3-3--3-2-2---|

outro:
G|-------------------------------|
D|-X--X--X--X--2-2--2--5-----2---|
A|-X--X--X--X--0-0--0--3--5--0---|
E|--------------------------------3------|



Comments