Guttermouth - Chug A Lug Night Chords & Tabs

 

Chug A Lug Night Chords & Tabs

Guttermouth Chords & Tabs

Version: 1 Type: Tab 0 ratings
1 star 2 stars 3 stars 4 stars 5 stars
comments

Chug A Lug Night Tab

   
---------------------------------------------------------------------------
			     Chug-A-Lug Night - Guttermouth
---------------------------------------------------------------------------

By: Robin J. Krier  
Album: Covered With Ants (Epitaph)

  Beginning, strum slow		      x2			 x2
e|--------------------------------------|------------------------|
B|-7---8---9-------------9---8---7------|------------------------|
G|-7---8---9-----9-------9---8---7----7-|---------13--13/11------|
D|-7---8---9-----9-------9---8---7----7-|-12\14---------------12-|
A|-5---6---7-----7-------7---6---5----5-|------------------------|
E|---------------^--------------------^-|------------------------|
[ Tab from: http://www.guitartabs.cc/tabs/g/guttermouth/chug_a_lug_night_tab.html ]
  verse "A lil' smoke on the water..."					   x4
e|---------------------------------------------------------------------------|
B|---------------------------------------------------------------------------|
G|-9-9-------9-9-------9-9-------9-8-7-7-------7-7-------7-7-------7-8-9-----|
D|-9-9-------9-9-------9-9-------9-8-7-7-------7-7-------7-7-------7-8-9-----|
A|-7-7--x-x--7-7--x-x--7-7--x-x--7-6-5-5--x-x--5-5--x-x--5-5--x-x--5-6-7-----|
E|---------------------------------------------------------------------------|

  chorus "Here we go!"
e|---------------------------------------------------------------------------|
B|---------------------------------------------------------------------------|
G|-----------------9-9--9-9--9-9-9--6-6--6-6--6-6-6--7-7--7-7--7-7-7--6------|
D|-7-7--7-7--7-7-7-9-9--9-9--9-9-9--6-6--6-6--6-6-6--7-7--7-7--7-7-7--6------|
A|-7-7--7-7--7-7-7-7-7--7-7--7-7-7--4-4--4-4--4-4-4--5-5--5-5--5-5-5--4------|
E|-5-5--5-5--5-5-5-----------------------------------------------------------|

  after 2nd chorus, 1 measure of...
e|-----------------------------|
B|-----------------------------|
G|-----------------------------|
D|-7-7-7-7-7-7-7-7-7-7-7-7-7-7-|
A|-7-7-7-7-7-7-7-7-7-7-7-7-7-7-|
E|-5-5-5-5-5-5-5-5-5-5-5-5-5-5-|

beginning intro again, then chorus,
Final "Here we go!"
e|-------------------|
B|-------------------|
G|-9-12-14-----------|
D|-9-12-14-----------|
A|-7-10-12-let ring--|
E|-------------------|
Comments