Guttermouth - Can I Borrow Some Ambition Chords & Tabs

 

Can I Borrow Some Ambition Chords & Tabs

Guttermouth Chords & Tabs

Version: 1 Type: Tab 0 ratings
1 star 2 stars 3 stars 4 stars 5 stars
comments

Can I Borrow Some Ambition Tab

----------------------------------------------------------------------------
			     Can I Borrow Some Ambition? - Guttermouth
----------------------------------------------------------------------------

By: Robin J. Krier  
Album: Covered with Ants (Epitaph)


 Lead in...
e|---------------------------------------------------------------------------|
B|---------------------------------------------------------------------------|
G|--------------------------5--5-5-5--5--7--7-7-7-7-9------------------------|
D|-7--7--7-7p5--7--7--7-7p5--------------------------------------------------|
A|---------------------------------------------------------------------------|
E|---------------------------------------------------------------------------|
[ Tab from: http://www.guitartabs.cc/tabs/g/guttermouth/can_i_borrow_some_ambition_tab.html ]
 Rhythm...
e|---------------------------------------------------------------------------|
B|---------------------------------------------------------------------------|
G|---------------------------5--5-5-5-5---7--7-7-7--7------------------------|
D|-7--7--7-7-7--7--7--7-7-7--5--5-5-5-5---7--7-7-7--7------------------------|
A|-7--7--7-7-7--7--7--7-7-7--3--3-3-3-3---5--5-5-5--5------------------------|
E|-5--5--5-5-5--5--5--5-5-5--------------------------------------------------|

 Chorus "Fuck No!"
e|---------------------------------------------------------------------------|
B|---------------------------------------------------------------------------|
G|------------10--10-10-------------------------7--7-7-7-7-8-----------------|
D|-7-X--X-X-X-10--10-10--10--10-10--5-----------7--7-7-7-7-8--repeat---------|
A|-7-X--X-X-X--8---8--8--10--10-10--5-X--X-X-X--5--5-5-5-5-6-----------------|
E|-5-X--X-X-X-------------8---8--8--3-X--X-X-X-------------------------------|

 Bridge/Solo/Whatever you call it...
e|------------------|
B|-11--11-11--11--9-|
G|--9---9--9---9--7-| x8
D|------------------|
A|------------------|
E|------------------|

 2nd guitar plays this over final chorus
e|----------------|
B|-11--repeat-----|
G|--9-------------|
D|----------------|
A|----------------|
E|----------------|

Comments