Guttermouth - Bruce Lee Vs The Kiss Army Chords & Tabs

 

Bruce Lee Vs The Kiss Army Chords & Tabs

Guttermouth Chords & Tabs

Version: 1 Type: Bass Tab 0 ratings
1 star 2 stars 3 stars 4 stars 5 stars
comments

Bruce Lee Vs The Kiss Army Bass Tab

Band : Guttermouth
Titre : Bruce Lee vs the Kiss Army



#1

|----------------------------------------------------------|
|----------------------------------------------------------|
|---------5-4-4----------4-5-5---------5-4-4---------5-4---|
|-7-7-7-7--------5-5-5-5-------3-3-3-3-------2-2-2-2-------|

#2
[ Tab from: http://www.guitartabs.cc/tabs/g/guttermouth/bruce_lee_vs_the_kiss_army_btab.html ]
|----------------------------------------------------------|
|----------------------------------------------------------|
|--------5-4----------------5-4----------------------------|
|--7-7-7-----5---2-2----3>------5----7-7-------------------|


#3

|----------------------------------------------------------|
|----------------------------------------------------------|
|---------------------------------------5-4----------------|
|---7>--3>--5>--2-2----7>--3>--5>--2-2---------------------|



Comments