Guthrow Daniel - December Chords & Tabs

 

December Chords & Tabs

Guthrow Daniel Chords & Tabs

Version: 1 Type: Tab 1 rating
1 star 2 stars 3 stars 4 stars 5 stars
comments

December Tab

|-----------------------------------------------------------------------|
|----------------------------------------3------------------------------|
|------0----------2----------0---------0--0-0---------------------------|
|---0---0-0-----0--0-0-----2--2-2-----2-2--2----------------------------|
|--2-2---2-----0-0--0-----2-2--2-----3----------------------------------|
|-3-----------2----------0----------------------------------------------|

|------------3-------------3--------------3---------------3-------------|
|------------3-------------3--------------3--------3------3-------------|
|------0-----0-------2-----2--------0-----0------0--0-0---0-------------|
|---0---0-0--0-----0--0-0--0------2--2-2--2-----2-2--2----2-------------|
|--2-2---2---2----0-0--0---0-----2-2--2---2----3----------3-------------|
|-3----------3---2---------2----0---------0---------------x-------------|

|-3--------------3--------------3---------------3-----------------------|
|-3--------------3--------------3---------------3-----------------------|
|-0--------------2--------------0---------------0-----------------------|
|-0--------------0--------------2---------------2-----------------------|
|-2--------------0--------------2---------------3-----------------------|
|-3--------------2--------------0---------------x-----------------------|

|-3--------------3--------------3---------------3-----------------------|
|-3--------------3--------------3---------------3-----------------------|
|-0--------------2--------------0---------------0-----------------------|
|-0--------------0--------------2---------------2-----------------------|
|-2--------------0--------------2---------------3-----------------------|
|-3--------------2--------------0---------------x-----------------------|

|-3--------------3--------------3---------------3-----------------------|
|-3--------------3--------------3---------------3-----------------------|
|-0--------------2--------------0---------------0-----------------------|
|-0--------------0--------------2---------------2-----------------------|
|-2--------------0--------------2---------------3-----------------------|
|-3--------------2--------------0---------------x-----------------------|
[ Tab from: http://www.guitartabs.cc/tabs/g/guthrow_daniel/december_tab.html ]
|-----------------------------------------------------------------------|
|-----------------------------------------------------------------------|
|----------------------------------------------0------------------------|
|------0------------0------------2-----------2--2-2---------------------|
|----2--2-2-------0--0-0-------2--2-2-----3-3-3--3----------------------|
|-3-3-3--3-----2-2-2--2-----0-0-0--0------------------------------------|

|------------3-------------3--------------3---------------3-------------|
|------------3-------------3--------------3--------3------3-------------|
|------0-----0-------2-----2--------0-----0------0--0-0---0-------------|
|---0---0-0--0-----0--0-0--0------2--2-2--2-----2-2--2----2-------------|
|--2-2---2---2----0-0--0---0-----2-2--2---2----3----------3-------------|
|-3----------3---2---------2----0---------0---------------x-------------|

|-3--------------3--------------3---------------3-----------------------|
|-3--------------3--------------3---------------3-----------------------|
|-0--------------2--------------0---------------0-----------------------|
|-0--------------0--------------2---------------2-----------------------|
|-2--------------0--------------2---------------3-----------------------|
|-3--------------2--------------0---------------x-----------------------|

|-3--------------3--------------3---------------3-----------------------|
|-3--------------3--------------3---------------3-----------------------|
|-0--------------2--------------0---------------0-----------------------|
|-0--------------0--------------2---------------2-----------------------|
|-2--------------0--------------2---------------3-----------------------|
|-3--------------2--------------0---------------x-----------------------|

|-3--------------3--------------3---------------3-----------------------|
|-3--------------3--------------3---------------3-----------------------|
|-0--------------2--------------0---------------0-----------------------|
|-0--------------0--------------2---------------2-----------------------|
|-2--------------0--------------2---------------3-----------------------|
|-3--------------2--------------0---------------x-----------------------|

|------------3-------------3--------------3---------------3----3~-------|
|------------3-------------3--------------3--------3------3----3~-------|
|------0-----0-------2-----2--------0-----0------0--0-0---0----0~-------|
|---0---0-0--0-----0--0-0--0------2--2-2--2-----2-2--2----2----0~-------|
|--2-2---2---2----0-0--0---0-----2-2--2---2----3----------3----2~-------|
|-3----------3---2---------2----0---------0---------------x----3~-------|
Comments