Guster - Two Points For Honesty Chords & Tabs

 

Two Points For Honesty Chords & Tabs

Guster Chords & Tabs

Version: 1 Type: Tab 0 ratings
1 star 2 stars 3 stars 4 stars 5 stars
comments

Two Points For Honesty Tab

----------------------------------------------------------------------------
		 Two Points for Honesty - Guster
----------------------------------------------------------------------------

Tabbed by: Nathan Alexander

Email: phree89@yahoo.com

Tuning: EADGBE (Standard)

There are already tabs for the songs, but neither had the madolin and other non-chord 
so I figured WTH.

Mandolin Part/Intro+Chorus (on guitar..not that it makes a difference)

Just Tremolo pick each note (really fast)

e|--as the music comes in----------(if thats all..)---------------|
B|----------2--3--------------------14--15--12--19----------------|
G|----------------------------------------------------------------|
D|----------------------------------------------------------------|
A|----------------------------------------------------------------|
E|----------------------------------------------------------------|

Verse P1 Guitar 2
e|------------------------------------|
B|-------2---2-3----------------------|
G|-2-2-2---2--------------------------|
D|------------------------------------|
A|------------------------------------|
E|------------------------------------|

(I want to be where....)
[ Tab from: http://www.guitartabs.cc/tabs/g/guster/two_points_for_honesty_tab.html ]
Verse P2 Guitar 2
e|-5----5----5----5------------2----2----2----2--------------|
B|--3-3--3-3--3-3--3-3-----3-5--3-5--3-5--3-5----------------|
G|-----------------------------------------------------------|
D|-----------------------------------------------------------|
A|-----------------------------------------------------------|
E|-----------------------------------------------------------|

Cont. Verse P2 Guitar 2
e|-0---0---0---0----------2-----2-----2-----2------|
B|--5-5-5-5-5-5-5-5---3-5---3-5---3-5---3-5--------|
G|-------------------------------------------------|
D|-------------------------------------------------|
A|-------------------------------------------------|
E|-------------------------------------------------|

Guitar 3 (I guess) Chorus (just repeat the whole chorus)
e|-------------------------------------|
B|-0-2-3-------------------------------|
G|-------------------------------------|
D|-------------------------------------|
A|-------------------------------------|
E|-------------------------------------|

And there you have it those are pretty much all the notable guitar parts aside from the 
For the mandolin part, feel free to move it down to the corresponding notes on the B 
Higher up sounds more tense like the mandolin, but lower down I think sounds better on the guitar.
Comments