Guster - Parachute Chords & Tabs

 

Parachute Chords & Tabs

Guster Chords & Tabs

Version: 1 Type: Tab 0 ratings
1 star 2 stars 3 stars 4 stars 5 stars
comments

Parachute Tab

   
Band - Guster
Song - Parachute

Tuning: standard


e|---2---2^3-2---2^3---|
B|---3---3---3---3-----|
G|---2---2---2---2-----|
D|---0---0---0---0-----| repeat
A|---x---x---x---x-----|
E|---x---x---x---x-----|

        D       D      D/F#    D/G    
e|------2-------2-------2-------2-----|
B|------3-------3-------3-------3-----|
G|------2-------2-------2-------2-----|
D|--0---0---0---0-------0-------0-----|
A|------x-------x-------x-------x-----|
E|------x-------x---2--(2)--3--(3)----|

D         D     D/F#    D/G
There we stand about to fly 
D           D           D/F#       D/G
Peeking down over land parachute behind 
D             D           D/F#     D/G
What was that moment for which we live? 
D          D          D/F#    D/G   (A)
Without a parachute about to dive 
[ Tab from: http://www.guitartabs.cc/tabs/g/guster/parachute_tab.html ]
Chorus:
A                G
I find myself convincing
A                G 
Blindly falling faster 
(G)  D        A 
How easy Ohhh oh
(A)                 G
Know the place I'm leaving 
(G)                   D     Dsus4 (as intro)
And the rest just is gone 

Verse: (as the first)

Oh the adoration 
But how much strength does it take 
For exploration, for split decision 
Or are you stronger to remain 

Chorus:
A                G
I find myself convincing
A                G 
Blindly falling faster 
(G)  D        A 
How easy Ohhh oh
(A)                 G
Know the place I'm leaving 
(G)                   D     Dsus4 (as intro)
And the rest just is gone

    D                     G
e|--5-----5-----5------|--7-----7-----7--------|
B|----3-----3-----3----|----7-----7-----7------|
G|---------------------|------7-----7-----7----|
D|------4-----4-----4--|-----------------------| repeat
A|---------------------|-----------------------|
E|---------------------|-----------------------|

D
It crept up on me 

Ignored all my pleas 
G
Begging to leave 

No justice to name me 
D
Fell out of the sky 

Cease it to be 
G
Without a reply 

Gravity fails me 
D
And when I awoke 

I knew what was real 
G
Hope to convince you 

Lies they all torture me 
D
Opened the door 

Knew what was me 
G
I finally realized 

Parachute over me
Comments