Guster - Mona Lisa Chords & Tabs

 

Mona Lisa Chords & Tabs

Guster Chords & Tabs

Version: 1 Type: Tab 0 ratings
1 star 2 stars 3 stars 4 stars 5 stars
comments

Mona Lisa Tab

Mona Lisa
by Guster

Transcribed by Justin Newman

e--7--7--7-----------7--7--7----------------------------------|
b--9--9--9-----------9--9--9----------------------------------|
g-------------------------------------------------------------|
d---------------8------------------8--------------------------|
a----------0-0----------------0-0-----------------------------|
e----------0-0----------------0-0-----------------------------|
[ Tab from: http://www.guitartabs.cc/tabs/g/guster/mona_lisa_tab.html ]
e--9--9--9-----------5--5--5-----------------------------------|
a-11-11-11-----------7--7--7-----------------------------------|
g--------------------7--7--7-----------------------------------|
d----------------------------------6---------------------------|
a----------9-9-0--------------0-0------------------------------|
e----------9-9-0--------------0-0------------------------------|

chorus:
e--0-0-0-0--0-0-0-0--0-0-0-0--0-0-0-0------------------------|
b--0-0-0-0--0-0-0-0--0-0-0-0--0-0-0-0------------------------|
g--1--------8--------x--------6------------------------------|
d--2--------9-------11--------7------------------------------|
a--2--------9-------11--------7------------------------------|
e--0--------7--------9--------5------------------------------|

the last chord in the chorus plays several times and then
goes back into the verse

the "when do we begin" part is the same as the verse only
its played with straight open bar chords instead of the
selective strumming.

that's it, its a fun song to play
any questions, email me at riddick@udel.edu
Comments