Guster - I Spy Chords & Tabs

 

I Spy Chords & Tabs

Guster Chords & Tabs

Version: 1 Type: Chords 0 ratings
1 star 2 stars 3 stars 4 stars 5 stars
comments

I Spy Chords

   
I Spy


(no capo): Before ryan comes in
 e-----------|
 B-----------|
 G-----------|
 D-----------|
 A------4----|  repeat (played 3 times before 2nd guitar comes in)
 E--2--------|

 Ryans part: Capo on 2nd fret
 (now the 2nd fret is now open, 4th fret is now writen
 as 2....etc)

    F#1   F#2   D#    F#3    C#    B    C#2   F#4

 e---------0----0-----(0)----0-----0-----------------------|
 B---------0----0-----(0)----0-----0-----------------------|
 G---9-----9----6------9-----2-----4-----------------------|
 D---9-----9----6------6-----2-----4-----------------------|
 A---7-----7----4------7-----0-----2-----------------------|
 E---x-----x----x------0-----x-----x-----7----0------------|


 Intro: F#1

 F#2
 we went down at the may parade
[ Tab from: http://www.guitartabs.cc/tabs/g/guster/i_spy_crd.html ]
 F#2
 mumbled words under my breath

 F#2
 there is something ive been meaning to do

 F#2
 i am dying to tell you

 D#                  F#2
 ive been so damn tired

 F#3
 we went down at the may parade

 F#3
 bitter words under my breath

 F#3
 there is something ive been dying to do

 F#3
 ive was meaning to tell you

 D#               F#2
 ive been so damn sad

 D#                     F#2
 cause i spy something real

 B                       C#
 you dont how far youve gone

 B                         C#
 or recognize who youve become

 B                       C#
 howd you grow to be so hard

                   C#2   F#4
 sick of playing   my   part

Transcribed By: Scribble
Comments