Guster - Diane Chords & Tabs

 

Diane Chords & Tabs

Guster Chords & Tabs

Version: 1 Type: Tab 0 ratings
1 star 2 stars 3 stars 4 stars 5 stars
comments

Diane Tab

#----------------------------------PLEASE NOTE---------------------------------#
#This file is the author's own work and represents their interpretation of the #
#song. You may only use this file for private study, scholarship, or research. #
#------------------------------------------------------------------------------##

Song- Diane
Album- Keep it together
Artist- Guster

Questions, comments...email chicmagntchef14@aol.com

e--------------------------------------------------
a--------------------------------------------------
d--------------------------------------------------
g--5-4-4---5-4-----5-4-4---------------------------
b--5-5-5---5-5-5---5-5-5--5 h 7--5/0------5--------
E-------------------------------------5-7----------
[ Tab from: http://www.guitartabs.cc/tabs/g/guster/diane_tab.html ]
    .
e---------------------------------------------------
a-----3-2-3-----------------------------------------
d-----------0---------------------------------------
g------------------2 h 4-4---4 h 5-5----2 h 4-4-----
b---0-----------------------------------------------
E---------------------------------------------------
                    x16        x8         x8
   
   
e---2 h 3 p 2 h 3-5 p 2---|--------------------------------
a-------------------------|--------------------------------
d-------------------------|--------------------------------
g-------------------------|---5-4-4---5-4------------------
b-------------------------|---5-5-4---5-4-5----------5-----
E-------------------------|-------------------5 h 7--------


e--------------|----------------------------------------------
a--------------|----------------------------------------------
d--------------|----------------------------------------------
g---0-0-0-0----|------------------|---------------------------|-
b--5-5-5-5-----|-4 h 5-5--2 h 4-4-|-2 h 4-4--4 h 5-5--2 h 4-4-|-
E--------------|------------------|---------------------------|-
      x8           x8       x8         x16     x8      x8

   And I...                    (end riff)
e---------------------------|----------------------------------
a-----------------------12--|----------------------------------
d----------14---------------|----------------------------------
g--12 h 14------12 h 14-----|----------12 h 14/16--14-12------
b---------------------------|--12 h 14-------------------14----
E---------------------------|----------------------------------
          this riff x6
Comments