Guster - Demon Chords & Tabs

 

Demon Chords & Tabs

Guster Chords & Tabs

Version: 4 Type: Tab 0 ratings
1 star 2 stars 3 stars 4 stars 5 stars
comments

Demon Tab

   
			     Demons - Guster
-------------------------------------------------------------------------------
Tabbed by: Noah G.
Email: ngoodman@umich.edu
[ Tab from: http://www.guitartabs.cc/tabs/g/guster/demon_tab_ver_4.html ]
Tuning: Standard
Capo: 5th Fret
Listen to the song for the rythym
Intro (Repeat Once)
e|---------0-----0- 0-0----0--0--0-------------------------------------|
B|--------3h5----5- 5 5\3--3--3-3\0------------------------------------|
G|-----------------------------------2--2--4--4------------------------|
D|---------------------------------------------------------------------|
A|---------------------------------------------------------------------|
E|---------------------------------------------------------------------|
Verse: Listen to the track for the rhythm
e|------------x--------------3-----3-----------------------------------|
B|------------x---1--1---1---3-----3-----------------------------------|
G|------------x--------------------------------------------------------|
D|-------2-2--x----------2---------------------------------------------|
A|-------2-2--x---3--3-------2-----------------------------------------|
E|------------x--------------3-----2-----------------------------------|
Chorus: Same as verse just no palm mute
e|------1--1---1---3-----3---------------------------------------------|
B|-----------------3-----3---------------------------------------------|
G|---------------------------------------------------------------------|
D|--2----------2-------------------------------------------------------|
A|--2---3--3-------2---------------------------------------------------|
E|-----------------3-----2---------------------------------------------|

| /  slide up
| \  slide down
| h  hammer-on
| p  pull-off
| ~  vibrato
| +  harmonic
| x  Mute note
===============================================================================
Comments