Guster - Come Downstairs And Say Hello Chords & Tabs

 

Come Downstairs And Say Hello Chords & Tabs

Guster Chords & Tabs

Version: 1 Type: Tab

Come Downstairs And Say Hello Tab

   
"Come Downstairs and Say Hello"
Guster


e-----------------------------------------------|
B-----------(8)---------------------------------|
G--------7---7--(9)--(9)------------------------|
D---7----7---9----------------------  <---------|these arent exact, but you
A------9---------7----7--7/9--------------------|           get the idea
E-----------------------------------------------|
    Dorothy moves


e-----------------------------------|
B-----------(8)---------------------|
G--------7---7--(9)--(9)------------|
D---7----7---9----------------------|
A------9---------7----7--7/9--------|
E-----------------------------------|
    to click her ruby shoes


e-----------------------------------|
B-----------------------------------|
G------------7----------------------|
D--7------7-----7--7--7/9-----------|
A-----10----------------------------|
E-----------------------------------|
   Right into

e-----------------------------------|
B-----------(8)---------------------|
G--------7---7--(9)--(9)------------|
D---7----7---9----------------------|
A------9---------7----7--7/9--------|
E-----------------------------------|
   the dark side of the moon

e--------------------------------------------------------|
B--------------------------------------------------------|
G---------6--6--6/7-----------7--------------------------|
D------7---------------7------7/9------------------------|
A---------------7/9--------------------------------------|
E-------------------------7------------------------------|
   Someone, Someone could tell me

e---------------------------------------------------|
B---------------------------------------------------|
G---------7--7-7------------------------------------|
D---7-----7--7/9------------------------------------|
A------9--------------------------------------------|
E---------------------------------------------------|
    where I belong

e---------------------------------------|
B-----------8---7-----------------------|
G---------------------------------------|
D--------9----------12------------------|
A---7---10--10------10------------------|
E---------------------------------------|
    Be calm     Be  Brave
[ Tab from: http://www.guitartabs.cc/tabs/g/guster/come_downstairs_and_say_hello_tab.html ]
e---------------------------------------|
B---------------(8)---------------------|
G------------7------(9)--(9)------------|
D-------7----7---9----------------------|
A----------9---------7----7--7/9--------|
E---------------------------------------|
 It'll be okay


No more messing around
And living underground
Or New Year's resolutions
By this time next year I won't be here
I turn on
Turn on MTV
The volume's down
Lips move
They say
It'll be ok


    D      Bm

    D                                  Bm
To tell you truth I've said it before tomorrow I start in a new direction


D                                      Bm
One last time these words from me I'm never saying them again

     G

And I shut the light  And listen as my watch unwinds


Bass line:
D-----------------|
A---------10--12--|
E-10--10----------|




    D                                  Bm
To tell you truth I've said it before tomorrow I start in a new direction

D                                 Bm
I know I've been half asleep I'm never doing that again


D                                           Bm
I look straight at what's coming ahead and soon it's gonna change in a new direction

D                                         Bm
Every night as I'm falling asleep these words repeated in my head


D    Bm


G                              D
Voices calling from a yellow road

A                           Bm   G  D
To come downstairs and say hello

A                       Bm   G  D
Don't be shy just say hello

D                                       Bm
To tell you truth I've said it before tomorrow I start in a new direction


D                                 Bm
I know I've been half asleep I'm never doing that again

D                                           Bm
I look straight at what's coming ahead and soon it's gonna change in a new direction

D                                        Bm
Every night as I'm falling asleep those words repeated in my head

Outro
D    Bm