Gustavo Santaolalla - Wings Chords & Tabs

 

Wings Chords & Tabs

Gustavo Santaolalla Chords & Tabs

Version: 2 Type: Tab

Wings Tab

   
fingerpick

Play all this part first an then repeat Part 1 (x3) and then repeat Part 2 (x2).

               Part 1                               Part 2
e |--X----X----X----x----x---x---x---x--|--x---x----x----x----x----x----x--|
A |--0----1----3----6----5---1---1---0--|--0---1----0----x----x----x----x--|
D |--X----X----X----x----x---x---x---x--|--x---x----x----2----0----0----0--|
G |--X----X----X----x----x---x---x---x--|--x---x----x----0----x----x----x--|
B |--X----0----2----5----3---0---0---x--|--x---0----x----x----3----x----x--|
E |--3----X----X----x----x---x---x---3--|--3---x----3----x----x----x----3--|
                Listen to the song for correct timing
[ Tab from: http://www.guitartabs.cc/tabs/g/gustavo_santaolalla/wings_tab_ver_2.html ]
  
Then strum Part 3 (x3) and then Part 4 (x2):
               
               Part 3                               Part 4
     
     G    A7  C7m  Dm Cadd9  G   G      G   A7   EM   Am   C7   C7    G
e |--3----x----x----1----x---3---3---|--3---x----x----x----x----x----3--|
A |--0----1----3----3----3---0---0---|--0---1----x----0----0----0----0--|
D |--0----0----0----2----x---0---0---|--0---0----0----2----0----0----0--|
G |--0----2----0----x----2---0---0---|--0---2----2----2----2----0----0--|
B |--2----0----2----x----3---2---2---|--2---0----2----0----3----3----2--|
E |--3----0----x----x----x---3---3---|--3---0----x----0----0----0----3--|
                Listen to the song for correct strumming & timing