Guns Up - How Its Done Chords & Tabs

 

How Its Done Chords & Tabs

Guns Up Chords & Tabs

Version: 1 Type: Tab

How Its Done Tab

Song : How It's Done
Artist: Guns Up!
Album: All This Is

Dropped D Tuning


Guitars 1+2
-----------------------------------------------------------------------|
-----------------------------------------------------------------------|
--------------------------------7xx8xx7--------------------------------|
--6666-5555-3333-5555-6666-5555----------------------------------------|
--6666-5555-3333-5555-6666-5555----------------------------------------|
--6666-5555-3333-5555-6666-5555----------------------------------------|   X4

---------------------------------------------------------------------|
---------------------------------------------------------------------|
---------------------------------------------------------------------|
---------------------------------------------------------------------|
--666-555-333-555-6-5-3-0--666-555-0~--------------------------------| X2
--666-555-333-555-6-5-3-0--666-555-0~--------------------------------|

---------------------------------------------------------------------|
---------------------------------------------------------------------|
---------------------------------------------------------------------|
---------------------------------------------------------------------|
--666-555-333-5--6-5-3-0--666-555-0~---------------------------------|
--666-555-333-5--6-5-3-0--666-555-0~---------------------------------| X2

---------------------------------------------------------------------|
---------------------------------------------------------------------|
---------------------------------------------------------------------|
-6-55xxx--3-55xxx----------------------------------------------------|
-6-55xxx--3-55xxx-0000000000000000-----------------------------------|
-6-55xxx--3-55xxx-0000000000000000-----------------------------------|X3

------------------------------------------------------------------------|
------------------------------------------------------------------------|
------------------------------------------------------------------------|
-6-55--3-55-0~----------------------------------------------------------|
-6-55--3-55-0~----------------------------------------------------------|
-6-55--3-55-0~----------------------------------------------------------| X1
[ Tab from: http://www.guitartabs.cc/tabs/g/guns_up/how_its_done_tab.html ]
Guitar 1
---------------------------------------------------------------------|
---------------------------------------------------------------------|
---------------------------------------------------------------------|
---------------------------------------------------------------------|
--333-666-3-5-0~-----------------------------------------------------|
--333-666-3-5-0~-----------------------------------------------------|

then

Guitar 2
---------------------------------------------------------------------|
---------------------------------------------------------------------|
---------------------------------------------------------------------|
---------------------------------------------------------------------|
--333-666-3-5-0~-----------------------------------------------------|
--333-666-3-5-0~-----------------------------------------------------|

then

Guitar 1
---------------------------------------------------------------------|
---------------------------------------------------------------------|
---------------------------------------------------------------------|
---------------------------------------------------------------------|
--333-666-3-5-0~-----------------------------------------------------|
--333-666-3-5-0~-----------------------------------------------------|

then

Guitar 1 + Guitar 2
------------------------------------------------------------------------|
------------------------------------------------------------------------|
------------------------------------------------------------------------|
------------------------------------------------------------------------|
--333-666-3-5-00-00-----------------------------------------------------|
--333-666-3-5-00-00-----------------------------------------------------|

---------------------------------------------------------------------|
---------------------------------------------------------------------|
---------------------------------------------------------------------|
---------------------------------------------------------------------|
--333-666-3-5-00000000-----------------------------------------------|
--333-666-3-5-00000000-----------------------------------------------| X3

---------------------------------------------------------------------|
---------------------------------------------------------------------|
---------------------------------------------------------------------|
---------------------------------------------------------------------|
--333-666-3-5-0------------------------------------------------------|
--333-666-3-5-0------------------------------------------------------|

END

Email : ChineseCatfish7@safe-mail.net