Guns Up - How Its Done Chords & Tabs

 

How Its Done Chords & Tabs

Guns Up Chords & Tabs

Version: 1 Type: Bass Tab

How Its Done Bass Tab

Song: How It's Done
Band: Guns Up!
Album: All This Is

Tabber: Tyson
Email: ChineseCatfish7@safe-mail.net

Also, check out my band's site. www.myspace.com/cedence

Tuning: Dropped D

First Verse

----------------------------------------------------------------|
----------------------------------------------------------------|
---------------------------------5-6-5--------------------------|
--6666-5555-3333-5555-6666-5555---------------------------------| X4

Breakdown 1
----------------------------------------------------------------|
----------------------------------------------------------------|
----------------------------------------------------------------|
--666-555-333-555-6-5-3-0---666-555-0~--------------------------| X2

----------------------------------------------------------------|
----------------------------------------------------------------|
----------------------------------------------------------------|
--666-555-333------6-5-3-0---666-555-0~-------------------------| X2
[ Tab from: http://www.guitartabs.cc/tabs/g/guns_up/how_its_done_btab.html ]
Verse 2
----------------------------------------------------------------|
----------------------------------------------------------------|
----------------------------------------------------------------|
--6-55--3-55--0000000000000000----------------------------------| X3

----------------------------------------------------------------|
----------------------------------------------------------------|
----------------------------------------------------------------|
--6-55--3-55--0~~~~~--------------------------------------------|

Breakdown 2 - Pause for Guitar Riff. On the fourth time, come in with:
----------------------------------------------------------------|
----------------------------------------------------------------|
----------------------------------------------------------------|
--333-66-3-5-0~---00---00---------------------------------------|

Verse 3
----------------------------------------------------------------|
----------------------------------------------------------------|
----------------------------------------------------------------|
--333-55-3-5-000000000------------------------------------------| X3

----------------------------------------------------------------|
----------------------------------------------------------------|
----------------------------------------------------------------|
--333-55-3-5-0--------------------------------------------------|


Well, that's it. Fairly simple song. Any questions, please email me.

And you should also buy this album. www.gunsuphc.com