Guns N Wankers - Sunstroke Chords & Tabs

 

Sunstroke Chords & Tabs

Guns N Wankers Chords & Tabs

Version: 1 Type: Tab 0 ratings
1 star 2 stars 3 stars 4 stars 5 stars
comments

Sunstroke Tab

   
Tabbed By: Rambozo 
Band : Guns N Wankers
Song : SunStroke

e-|---------------------------------------------------------------------
B-|---------------------------------------------------------------------
G-|---------------------------------------------------------------------
D-|---------8-8-8-8-----------------------------8-8-8-8---------7-7-7-7-
A-|-5-5-5-5-6-6-6-6-8-8-8-8-10-10-10-10-5-5-5-5-6-6-6-6-8-8-8-8-5-5-5-5-
E-|-3-3-3-3---------6-6-6-6--8--8--8--8-3-3-3-3---------6-6-6-6---------

e-|---------------------------------------------------------------------
B-|---------------------------------------------------------------------
G-|---------------------------------------------------------------------
D-|---------8-8-8-8-----------------------------8-8-8-8---------7-7-7-7-
A-|-5-5-5-5-6-6-6-6-8-8-8-8-10-10-10-10-5-5-5-5-6-6-6-6-8-8-8-8-5-5-5-5-
E-|-3-3-3-3---------6-6-6-6--8--8--8--8-3-3-3-3---------6-6-6-6---------

e-|---------------------------------------------------------------------
B-|---------------------------------------------------------------------
G-|---------------------------------------------------------------------
D-|---------8-8-8-8-----------------------------8-8-8-8---------7-7-7-7-
A-|-5-5-5-5-6-6-6-6-8-8-8-8-10-10-10-10-5-5-5-5-6-6-6-6-8-8-8-8-5-5-5-5-
E-|-3-3-3-3---------6-6-6-6--8--8--8--8-3-3-3-3---------6-6-6-6---------

e-|---------------------------------------------------------------------|
B-|---------------------------------------------------------------------|
G-|---------------------------------------------------------------------|
D-|---------8-8-8-8-----------------------------8-8-8-8---------7-7-7-7-|
A-|-5-5-5-5-6-6-6-6-8-8-8-8-10-10-10-10-5-5-5-5-6-6-6-6-8-8-8-8-5-5-5-5-|
E-|-3-3-3-3---------6-6-6-6--8--8--8--8-3-3-3-3---------6-6-6-6---------|

e-|---------------------------------------------------------------------
B-|---------------------------------------------------------------------
G-|---------------------------------------------------------------------
D-|---------10-10-10-10-8-8-8-8-7-7-7-7---------8-8-8-8---------7-7-7-7-
A-|-8-8-8-8--8--8--8--8-6-6-6-6-5-5-5-5-5-5-5-5-6-6-6-6-8-8-8-8-5-5-5-5-
E-|-6-6-6-6-----------------------------3-3-3-3---------6-6-6-6---------

e-|---------------------------------------------------------------------
B-|---------------------------------------------------------------------
G-|---------------------------------------------------------------------
D-|---------10-10-10-10-8-8-8-8-7-7-7-7---------8-8-8-8---------7-7-7-7-
A-|-8-8-8-8--8--8--8--8-6-6-6-6-5-5-5-5-5-5-5-5-6-6-6-6-8-8-8-8-5-5-5-5-
E-|-6-6-6-6-----------------------------3-3-3-3---------6-6-6-6---------

e-|---------------------------------------------------------------------
B-|---------------------------------------------------------------------
G-|---------------------------------------------------------------------
D-|---------8-8-8-8-----------------------------8-8-8-8---------7-7-7-7-
A-|-5-5-5-5-6-6-6-6-8-8-8-8-10-10-10-10-5-5-5-5-6-6-6-6-8-8-8-8-5-5-5-5-
E-|-3-3-3-3---------6-6-6-6--8--8--8--8-3-3-3-3---------6-6-6-6---------
[ Tab from: http://www.guitartabs.cc/tabs/g/guns_n_wankers/sunstroke_tab.html ]
e-|---------------------------------------------------------------------|
B-|---------------------------------------------------------------------|
G-|---------------------------------------------------------------------|
D-|---------8-8-8-8-----------------------------8-8-8-8---------7-7-7-7-|
A-|-5-5-5-5-6-6-6-6-8-8-8-8-10-10-10-10-5-5-5-5-6-6-6-6-8-8-8-8-5-5-5-5-|
E-|-3-3-3-3---------6-6-6-6--8--8--8--8-3-3-3-3---------6-6-6-6---------|

e-|---------------------------------------------------------------------
B-|---------------------------------------------------------------------
G-|---------------------------------------------------------------------
D-|---------10-10-10-10-8-8-8-8-7-7-7-7---------8-8-8-8---------7-7-7-7-
A-|-8-8-8-8--8--8--8--8-6-6-6-6-5-5-5-5-5-5-5-5-6-6-6-6-8-8-8-8-5-5-5-5-
E-|-6-6-6-6-----------------------------3-3-3-3---------6-6-6-6---------

e-|---------------------------------------------------------------------
B-|---------------------------------------------------------------------
G-|---------------------------------------------------------------------
D-|---------10-10-10-10-8-8-8-8-7-7-7-7---------8-8-8-8---------7-7-7-7-
A-|-8-8-8-8--8--8--8--8-6-6-6-6-5-5-5-5-5-5-5-5-6-6-6-6-8-8-8-8-5-5-5-5-
E-|-6-6-6-6-----------------------------3-3-3-3---------6-6-6-6---------

e-|-----------------------------------------|
B-|-----------------------------------------|
G-|-----------------------------------------|
D-|-8---5-5-------------8---5-5-------------|
A-|-6-8-3-3-5-5-5-5-5-8-6-8-3-3-5-5-5-5-5-8-|
E-|---6-----3-3-3-3-3-6---6-----3-3-3-3-3-6-|

e-|---------------------------------------------------------------------
B-|---------------------------------------------------------------------
G-|---------------------------------------------------------------------
D-|---------8-8-8-8-----------------------------8-8-8-8---------7-7-7-7-
A-|-5-5-5-5-6-6-6-6-8-8-8-8-10-10-10-10-5-5-5-5-6-6-6-6-8-8-8-8-5-5-5-5-
E-|-3-3-3-3---------6-6-6-6--8--8--8--8-3-3-3-3---------6-6-6-6---------

e-|---------------------------------------------------------------------|
B-|---------------------------------------------------------------------|
G-|---------------------------------------------------------------------|
D-|---------8-8-8-8-----------------------------8-8-8-8---------7-7-7-7-|
A-|-5-5-5-5-6-6-6-6-8-8-8-8-10-10-10-10-5-5-5-5-6-6-6-6-8-8-8-8-5-5-5-5-|
E-|-3-3-3-3---------6-6-6-6--8--8--8--8-3-3-3-3---------6-6-6-6---------|

e-|---------------------------------------------------------------------
B-|---------------------------------------------------------------------
G-|---------------------------------------------------------------------
D-|---------10-10-10-10-8-8-8-8-7-7-7-7---------8-8-8-8---------7-7-7-7-
A-|-8-8-8-8--8--8--8--8-6-6-6-6-5-5-5-5-5-5-5-5-6-6-6-6-8-8-8-8-5-5-5-5-
E-|-6-6-6-6-----------------------------3-3-3-3---------6-6-6-6---------

e-|---------------------------------------------------------------------
B-|---------------------------------------------------------------------
G-|---------------------------------------------------------------------
D-|---------10-10-10-10-8-8-8-8-7-7-7-7---------8-8-8-8---------7-7-7-7-
A-|-8-8-8-8--8--8--8--8-6-6-6-6-5-5-5-5-5-5-5-5-6-6-6-6-8-8-8-8-5-5-5-5-
E-|-6-6-6-6-----------------------------3-3-3-3---------6-6-6-6---------
Comments