Guns N Roses - Youre Crazy Chords & Tabs

 

Youre Crazy Chords & Tabs

Guns N Roses Chords & Tabs

Version: 4 Type: Tab 0 ratings
1 star 2 stars 3 stars 4 stars 5 stars
comments

Youre Crazy Tab

   
                                  YOU'RE CRAZY
                          As recorded by Guns N' Roses
                 (From the 1987 Album APPETITE FOR DESTRUCTION)

Words and Music by W. Axl Rose, Slash, Izzy Stradlin', Duff McKagan & Steven Alder
Transcribed by www.mikesguitarsite.co.uk

Gtr I (Eb Ab Db Gb Bb Eb) - 'Izzy Stradlin' - Rhythm w/dist'
Gtr II (Eb Ab Db Gb Bb Eb) - 'Slash - Rhythm w/dist'
Gtr III (Eb Ab Db Gb Bb Eb) - 'Slash - Lead w/dist'

 Intro
  Q=242
 4/4
  Gtrs I, II
|---------|-----------||-----------------|
|---------|-----------||o----------------|
|---------|-----------||----2-2---2----2-|
|---------|-5----6----||----2-2---2----2-|
|---------|-5----6----||o---0-0---0----0-|
|---------|-3----4----||--3-----3----3---|


|-------------------------|----------------|-------------0----||
|-------3-----------------|----------------|-------------0---o||
|-(2)---2--2b3==(2)r(2)p0-|---2-2---2----2-|-(2)--------------||
|-(2)---0-----------------|---2-2---2----2-|-(2)--------------||
|-(0)-0-------------------|---0-0---0----0-|-(0)-------------o||
|-------------------------|-3-----3----3---|-----0-3-4-0------||


                                                        1.
    Gtr III
                                     ~~
||------------------------|----------------------------|-----------------------|
||o-12h14-14-12-14--12-14-|-(14)-----------------------|-12h14-14-12-14--12-14-|
||--12h14-14-12-14--12-14-|-(14)-12--------------------|-12h14-14-12-14--12-14-|
||------------------------|---------14-----------------|-----------------------|
||o-----------------------|----------------------------|-----------------------|
||------------------------|----------------------------|-----------------------|
|
|   Gtrs I, II
||------------------------|----------------------------|-----------------------|
||o-----------------------|----------3-----------------|-----------------------|
||------2--2-----2------2-|--(2)-----2--2b3==(2)r(2)p0-|-----2--2-----2------2-|
||------2--2-----2------2-|--(2)-----0-----------------|-----2--2-----2------2-|
||o-----0--0-----0------0-|--(0)--0--------------------|-----0--0-----0------0-|
||---3--------3------3----|----------------------------|--3--------3------3----|


                         2.
           ~~
|---------------------||--------------------------|
|-(14)---------------o||-----------------------12-|
|-(14)-12-------------||--12h14-14-14-14-12h13----|
|---------14----------||--12h14-14-14-14----------|
|--------------------o||--------------------------|
|---------------------||--------------------------|
|
|----------------0----||--------------------------|
|----------------0---o||--------------------------|
|--(2)----------------||------2--2-----2--------2-|
|--(2)----------------||------2--2-----2--------2-|
|--(0)---------------o||------0--0-----0--------0-|
|-------0--3-4-0------||---3--------3--------3----|


               ~~~~~~~~~~~~~
|-12----------------------------||
|-----15b17==(15)-----(15)r-----||
|-------------------------------||
|-------------------------------||
|-------------------------------||
|-------------------------------||
|
|---------------------------0---||
|---------------------------0---||
|-(2)---------------------------||
|-(2)---------------------------||
|-(0)---------------------------||
|--------------0--3-4---0-------||


   Verses
    $
    Gtrs I, II
||-----------------|-------------------------|
||o----------------|-------3-----------------|
||----2-2---2----2-|-(2)---2--2b3==(2)r(2)p0-|
||----2-2---2----2-|-(2)---0-----------------|
||o---0-0---0----0-|-(0)-0-------------------|
||--3-----3----3---|-------------------------|


|----------------|-------------0----|
|----------------|-------------0----|
|---2-2---2----2-|-(2)--------------|
|---2-2---2----2-|-(2)--------------|
|---0-0---0----0-|-(0)--------------|
|-3-----3----3---|-----0-3-4-0------|


|----------------|-------------------------|----------------|-------------0---||
|----------------|-------3-----------------|----------------|-------------0---||
|---2-2---2----2-|-(2)---2--2b3==(2)r(2)p0-|---2-2---2----2-|-(2)-------------||
|---2-2---2----2-|-(2)---0-----------------|---2-2---2----2-|-(2)-------------||
|---0-0---0----0-|-(0)-0-------------------|---0-0---0----0-|-(0)-------------||
|-3-----3----3---|-------------------------|-3-----3----3---|-----0-3-4-0-----||


 Pre-Chorus
|----------------|----------------|----------------|---------------|
|----------------|----------------|----------------|---------------|
|-7-7-7-7-7--x-x-|-7-7-7-7-7--x-x-|-7-7-7-7-7--x-x-|-7-7-7-7-7-5---|
|-7-7-7-7-7--x-x-|-7-7-7-7-7--x-x-|-7-7-7-7-7--x-x-|-7-7-7-7-7-5---|
|-5-5-5-5-5--x-x-|-5-5-5-5-5--x-x-|-5-5-5-5-5--x-x-|-5-5-5-5-5-3---|
|----------------|----------------|----------------|---------------|


|----------------|-------------------------|----------------|-------------0---|
|----------------|-------3-----------------|----------------|-------------0---|
|---2-2---2----2-|-(2)---2--2b3==(2)r(2)p0-|---2-2---2----2-|-(2)-------------|
|---2-2---2----2-|-(2)---0-----------------|---2-2---2----2-|-(2)-------------|
|---0-0---0----0-|-(0)-0-------------------|---0-0---0----0-|-(0)-------------|
|-3-----3----3---|-------------------------|-3-----3----3---|-----0-3-4-0-----|


|----------------|----------------|----------------|-----------------|
|----------------|----------------|----------------|-----------------|
|-7-7-7-7-7--x-x-|-7-7-7-7-7--x-x-|-7-7-7-7-7--x-x-|-7-7-7-7-7-7-7-7-|
|-7-7-7-7-7--x-x-|-7-7-7-7-7--x-x-|-7-7-7-7-7--x-x-|-7-7-7-7-7-7-7-7-|
|-5-5-5-5-5--x-x-|-5-5-5-5-5--x-x-|-5-5-5-5-5--x-x-|-5-5-5-5-5-5-5-5-|
|----------------|----------------|----------------|-----------------|


  1.
     PM------------------------|
|----------------|----------------|-----------------|-----------|
|----------------|----------------|-----------------|-----------|
|-9--------------|----------------|-7-7-7-7-7-7-7-7-|-5---------|
|-9--7-7-9-9-7-7-|-9-9-7-7-9-7-7--|-7-7-7-7-7-7-7-7-|-5----5----|
|-7--------------|----------------|-5-5-5-5-5-5-5-5-|-3----5----|
|-0--------------|----------------|-----------------|------3----|


  Gtr III
                                   ~~
|-----------------------|----------------------------|
|-12h14-14-12-14--12-14-|-(14)-----------------------|
|-12h14-14-12-14--12-14-|-(14)-12--------------------|
|-----------------------|---------14-----------------|
|-----------------------|----------------------------|
|-----------------------|----------------------------|
|
| Gtrs I, II
|-----------------------|----------------------------|
|-----------------------|----------3-----------------|
|-----2--2-----2------2-|--(2)-----2--2b3==(2)r(2)p0-|
|-----2--2-----2------2-|--(2)-----0-----------------|
|-----0--0-----0------0-|--(0)--0--------------------|
|--3--------3------3----|----------------------------|


                                   ~~
|-----------------------|--------------------|
|-12h14-14-12-14--12-14-|-(14)---------------|
|-12h14-14-12-14--12-14-|-(14)-12------------|
|-----------------------|---------14---------|
|-----------------------|--------------------|
|-----------------------|--------------------|
|
|-----------------------|----------------0---|
|-----------------------|----------------0---|
|-----2--2-----2------2-|--(2)---------------|
|-----2--2-----2------2-|--(2)---------------|
|-----0--0-----0------0-|--(0)---------------|
|--3--------3------3----|-------0--3-4-0-----|


                                   ~~
|-----------------------|----------------------------|
|-12h14-14-12-14--12-14-|-(14)-----------------------|
|-12h14-14-12-14--12-14-|-(14)-12--------------------|
|-----------------------|---------14-----------------|
|-----------------------|----------------------------|
|-----------------------|----------------------------|
|
|-----------------------|----------------------------|
|-----------------------|----------3-----------------|
|-----2--2-----2------2-|--(2)-----2--2b3==(2)r(2)p0-|
|-----2--2-----2------2-|--(2)-----0-----------------|
|-----0--0-----0------0-|--(0)--0--------------------|
|--3--------3------3----|----------------------------|


                                         ~~~~~~~~~~~~~
|-------------------------|-12------------------------------||
|----------------------12-|-----15b17==(15)-----(15)r------o||
|-12h14-14-14-14-12h13----|---------------------------------||
|-12h14-14-14-14----------|---------------------------------||
|-------------------------|--------------------------------o||
|-------------------------|---------------------------------||
|
|-------------------------|---------------------------0-----||
|-------------------------|---------------------------0----o||
|-----2--2-----2--------2-|-(2)-----------------------------||
|-----2--2-----2--------2-|-(2)-----------------------------||
|-----0--0-----0--------0-|-(0)----------------------------o||
|--3--------3--------3----|--------------0--3-4---0---------||


                                             Chorus
  2.,D.S.me Q=121
  Gtrs I, II
  ~              ~~~~~~~~PM| ~~~~~~                    ~
|------------------|-----------------------||---------------------|
|------------------|-----------------------||---------------------|
|------------------|-----------------------||---------------------|
|----5b5.5---------|-----------------------||--------------9-8-7--|
|-7---------7-6--5-|-(5)-----------------3-||-(3)b3.5------7-6-5--|
|------------------|-----3-3-4-(4)-5-5-5---||----------5----------|


          ~~~~~~                   ~~~~~~~
|-----------------------|-----------------------|
|-----------------------|-----------------------|
|-----------------------|-----------------------|
|-(7)-------------------|-----------------9-8-7-|
|-(5)-----------------3-|-(3)b3.5---------7-6-5-|
|-----3-4-5-(5)-5-5-5---|----------5--(5)-------|


      PM------------------------|
|----------------------------------|
|----------------------------------|
|----------------------------------|
|-(7)------------------------------|
|-(5)------------------------------|
|-----2-2-3-3-2-2-3-3-4-4-3-3-3-3--|


                                      To Coda
                                              7/8
         ~~~~~~~               ~~~~~~                   ~~~~~~~
|---------------------|----------------------|---------------------|
|---------------------|----------------------|---------------------|
|---------------------|----------------------|---------------------|
|---------------9-8-7-|-(7)------------------|-----------------9-8-|
|-3b3.5---------7-6-5-|-(5)-3--3-(3)-------3-|-(3)b3.5---------7-6-|
|--------5--(5)-------|--------------5-5-5---|----------5--(5)-----|


  A Tempo Q=242
 4/4
|----------|----------|----------|--------------------||
|----------|----------|----------|--------------------||
|----------|----------|-7--------|-(7)\---------------||
|-7--------|-7--------|-7--------|-(7)\---------------||
|-5--------|-5--------|-5--------|-(5)\--2-2-5-5-4-4--||
|----------|----------|----------|-------0-0-3-3-2-2--||


   Interlude
       PM------|           PM   PM--|
||-----------------|--------------------|
||o----------------|--------------------|
||---------------9-|-(9)\----9\-------9-|
||---------------9-|-(9)\----9\-------9-|
||o-2------------7-|-(7)\----7\-------7-|
||--0--0-0-0-0-0---|-------0-0--0-0-0---|


        PM   PM--|           PM|
|--------------------|------------------|
|--------------------|------------------|
|-(9)\----9\-------9-|-(9)\------5--4---|
|-(9)\----9\-------9-|-(9)\------5--4---|
|-(7)\----7\-------7-|-(7)\--0-0-3--2---|
|-------0-0--0-0-0---|------------------|


  1.,2.
     PM------|           PM   PM--|           PM   PM--|
|--------------5-|-(5)\----5\-------5-|-(5)\----5\-------5-|-(5)\-------------||
|--------------5-|-(5)\----5\-------5-|-(5)\----5\-------5-|-(5)\------------o||
|-2--------------|--------------------|--------------------|------------------||
|-2--------------|--------------------|--------------------|-----------5--4---||
|-0--0-0-0-0-0---|-------0----0-0-0---|-------0----0-0-0---|-------0-0-5--4--o||
|----------------|--------------------|--------------------|-----------3--2---||

[ Tab from: http://www.guitartabs.cc/tabs/g/guns_n_roses/youre_crazy_tab_ver_4.html ]
  3.121
|---------------------------------|---------------------------------|
|---------------------------------|---------------------------------|
|-----2---2-----------------------|---------------------------------|
|---2---2---2---2-----5---5-------|-----4---4-----------3---3-------|
|-0-----------0-----5---5---5---5-|---4---4---4---4---3---3---3---3-|
|-----------------3-----------3---|-2-----------2---1-----------1---|


||-----------------------------------||
||o---------------------------------o||
||-----------------------------------||
||-----------------------------------||
||o---------------------------------o||
||--0-0-0-0-0-0-0-0-0-0-0-0-0-0-0-0--||


 Guitar Solo
  A Tempo Q=242
  Gtr III
|------------7--------------7-7------------7-|
|------------7------------7-7-7------------7-|
|-9b11==(9)r---9b11==(9)r-------9b11==(9)r---|
|--------------------------------------------|
|--------------------------------------------|
|--------------------------------------------|
|
| Gtrs I, II
|--------------------------------------------|
|--------------------------------------------|
|--------------------------------------------|
|--------7---9--------9---7-9----------7---9-|
|--------7---9--------9---7-9----------7---9-|
|--------5---7--------7---5-7----------5---7-|


                                                   ~~~~~~~~      ~
|-------7----------------|---------------------------|----------------|
|-------7-9b10=====(9)r--|---------------------------|----------------|
|-9--9----9b11=====(9)r--|-9b10==(9)r(9)-7---9-7---7-|-(7)-7----------|
|------------------------|-----------------9-----9---|-------9-7------|
|------------------------|---------------------------|-----------9----|
|------------------------|---------------------------|----------------|
|
|------------------------|---------------------------|----------------|
|------------------------|---------------------------|----------------|
|---------9--------------|---------------------------|----------------|
|---(9)-7-9--------------|--------7---9--9-7-9---7-9-|-(9)-7-7---4----|
|---(9)-7-7--------------|--------7---9--9-7-9---7-9-|-(9)-7-7---4----|
|---(7)-5----------------|--------5---7--7-5-7---5-7-|-(7)-5-5---2----|


  PM--| ~~~~~~PM
|-------------------|---------------7---|
|-------------------|-------------7---7-|
|-------------------|--7h=8---7h8-------|
|-------7-(7)---9---|-------9-----------|
|-7-9-9-------9-----|-------------------|
|-------------------|-------------------|
|
|-------------------|-------------------|
|-------------------|-------------------|
|-------------------|-------9-----------|
|-7-9-9-7--9----7-9-|-(9)-7-9-----------|
|-7-9-9-7--9----7-9-|-(9)-7-7-----------|
|-5-7-7-5--7----5-7-|-(7)-5-------------|


|--------------7----7------------|-----------------------------------|
|-10b12==(10)r---10---10p9p7-9-7-|-----------------------------------|
|--------------------------------|-9b11==(9)r(9)p7-9-7-9b11==(9)r----|
|--------------------------------|-----------------------------------|
|--------------------------------|-----------------------------------|
|--------------------------------|-----------------------------------|
|
|--------------------------------|-----------------------------------|
|--------------------------------|-----------------------------------|
|--------------------------------|-----------------------------------|
|----------7---9--9-7--9-----7-9-|-------(9)--7----7----------4------|
|----------7---9--9-7--9-----7-9-|-------(9)--7----7----------4------|
|----------5---7--7-5--7-----5-7-|-------(7)--5----5----------2------|


                    ~~~~~~~    ~~         ~~    ~~~~~~~    ~~
|---------------17---------17------|-17-----17---------17-----|
|-17b19==(17)------17-(17)----17---|-----17----17-(17)----17--|
|----------------------------------|--------------------------|
|----------------------------------|--------------------------|
|----------------------------------|--------------------------|
|----------------------------------|--------------------------|
|
|----------------------------------|--------------------------|
|----------------------------------|--------------------------|
|----------------------------------|---------9----------------|
|----------7--9--9--7---9------7-9-|-(9)--7--9----------------|
|----------7--9--9--7---9------7-9-|-(9)--7--7----------------|
|----------5--7--7--5---7------5-7-|-(7)--5-------------------|


      ~~    ~~~~~~~    ~~
|-17----17---------17----17-|---------------------------------|
|----17----17-(17)----17----|-17b19r==(17)b19==(17)-(17)r\----|
|---------------------------|---------------------------------|
|---------------------------|---------------------------------|
|---------------------------|---------------------------------|
|---------------------------|---------------------------------|
|
|---------------------------|---------------------------------|
|---------------------------|---------------------------------|
|---------------------------|---------------------------------|
|--7--9--9--7---9------7--9-|-(9)---7---7-------------4-------|
|--7--9--9--7---9------7--9-|-(9)---7---7-------------4-------|
|--5--7--7--5---7------5--7-|-(7)---5---5-------------2-------|


|----------------7----------------------|---------------------------------|
|-10b12==(10)r-----10-8-7h10p7----------|------7-10p7---------------------|
|------------------------------10-9b10==|=(9)r--------9-9b11==(9)r(9)-7-9-|
|---------------------------------------|---------------------------------|
|---------------------------------------|---------------------------------|
|---------------------------------------|---------------------------------|
|
|---------------------------------------|---------------------------------|
|---------------------------------------|---------------------------------|
|---------------------------------------|---------9-----------------------|
|----------7---9-9--7-9---------7-9-----|-(9)--7--9-----------------------|
|----------7---9-9--7-9---------7-9-----|-(9)--7--7-----------------------|
|----------5---7-7--5-7---------5-7-----|-(7)--5--------------------------|


                                    D.S. al Coda
  PM------------------|
|-------------------|----------------------------||
|-------------------|----------------------------||
|-7-----------------|----------------------------||
|---9-7-------------|----------------------------||
|-------9-8-8-7-7---|--5----[7]b9==([7])r--------||
|-------------------|----------------------------||
|
|-------------------|----------------------------||
|-------------------|----------------------------||
|-------------------|----------------------------||
|-7-9-9-7-9-----7-9-|-(9)-7----------7-----4-----||
|-7-9-9-7-9-----7-9-|-(9)-7----------7-----4-----||
|-5-7-7-5-7-----5-7-|-(7)-5----------5-----2-----||


  Half Time Q=121
  &
  Gtr III
                                 ~~~~~~
|--------------------|-------------------------|--------------------|
|--------------------|-------------------------|--------------------|
|--------------------|-----------5-(5)-------5-|-(5)b6--------------|
|--------------------|-----7-7-7-------7-7-7---|----------7---------|
|--------------------|-------------------------|--------------------|
|--------------------|-------------------------|--------------------|
|
| Gtrs I, II
|          ~                   ~~~~~~~~                   ~
|--------------------|-------------------------|--------------------|
|--------------------|-------------------------|--------------------|
|--------------------|-------------------------|--------------------|
|--------------9-8-7-|-(7)---------------------|--------------9-8-7-|
|-(3)b3.5------7-6-5-|-(5)-------------------3-|-(3)b3.5------7-6-5-|
|----------5---------|-----3-4-5---(5)-5-5-5---|----------5---------|


            ~~~~~~                                         ~~~~~~
|-------------------------|--------------------|-------------------------|
|-------------------------|--------------------|-------------------------|
|-----------5-(5)-------5-|-(5)b6--------------|-----------5-(5)-------5-|
|-----7-7-7-------7-7-7---|----------7---------|-----7-7-7-------7-7-7---|
|-------------------------|--------------------|-------------------------|
|-------------------------|--------------------|-------------------------|
|
|         ~~~~~~~~                   ~                   ~~~~~~~~
|-------------------------|--------------------|-------------------------|
|-------------------------|--------------------|-------------------------|
|-------------------------|--------------------|-------------------------|
|-(7)---------------------|--------------9-8-7-|-(7)---------------------|
|-(5)-------------------3-|-(3)b3.5------7-6-5-|-(5)-------------------3-|
|-----3-4-5---(5)-5-5-5---|----------5---------|-----3-4-5---(5)-5-5-5---|


                                 ~~~~~~
|--------------------|-------------------------|--------------------|
|--------------------|-------------------------|--------------------|
|-(5)b6--------------|-----------5-(5)-------5-|-(5)b6--------------|
|----------7---------|-----7-7-7-------7-7-7---|----------7---------|
|--------------------|-------------------------|--------------------|
|--------------------|-------------------------|--------------------|
|
|          ~                   ~~~~~~~~                   ~
|--------------------|-------------------------|--------------------|
|--------------------|-------------------------|--------------------|
|--------------------|-------------------------|--------------------|
|--------------9-8-7-|-(7)---------------------|--------------9-8-7-|
|-(3)b3.5------7-6-5-|-(5)-------------------3-|-(3)b3.5------7-6-5-|
|----------5---------|-----3-4-5---(5)-5-5-5---|----------5---------|


|------------------10----------------|---------------------10----------------|
|----------13b15==(13)r(13)b15==(13)-|-(13)r\------13b15==(13)r(13)b15==(13)-|
|------------------------------------|---------------------------------------|
|------------------------------------|---------------------------------------|
|------------------------------------|---------------------------------------|
|------------------------------------|---------------------------------------|
|
|------------------------------------|---------------------------------------|
|------------------------------------|---------------------------------------|
|-------------------7-------------7--|--(7)-----------------7-------------7--|
|-(7)---------------7-------------7--|--(7)-----------------7-------------7--|
|-(5)---------------5-------------5--|--(5)-----------------5-------------5--|
|------------------------------------|---------------------------------------|


|--------------------|-----------------*|
|-(13)r\-------------|-----------------*|
|--------------------|-----------------*|
|--------------------|-----------------*|
|------------------3-|-(3)b3.5---------*|
|------------5-5-5---|----------3------*|
|
|--------------------|-----------------*|
|--------------------|-----------------*|
|--(7)---------------|-----------------*|
|--(7)---------------|-----------------*|
|--(5)-------------3-|-(3)b3.5---------*|
|------------5-5-5---|----------3------*|


Tablature Legend
----------------
 h   - hammer-on
 p   - pull-off
 b   - bend
 pb  - pre-bend
 r   - bend release (if no number after the r, then release immediately)
 /\  - slide into or out of (from/to "nowhere")
 s   - legato slide
 S   - shift slide
  - natural harmonic
[n]  - artificial harmonic
n(n) - tapped harmonic
 ~   - vibrato
 tr  - trill
 T   - tap
 TP  - trem. picking
 PM  - palm muting
\n/  - tremolo bar dip; n = amount to dip
 \n  - tremolo bar down
 n/  - tremolo bar up
/n\  - tremolo bar inverted dip
 =   - hold bend; also acts as connecting device for hammers/pulls
 <>  - volume swell (louder/softer)
 x   - on rhythm slash represents muted slash
 o   - on rhythm slash represents single note slash

Misc Legend
-----------
 |  - bar
||  - double bar
||o - repeat start
o|| - repeat end
*|  - double bar (ending)
 :  - bar (freetime)
 $  - Segno
 &  - Coda
Tempo markers -  = BPM(8/16=s8/s16), where s8 = swing 8ths, s16 = swing 16ths


***************************************************************************************
* Generated using Power Tab Editor by Brad Larsen - http://powertab.guitarnetwork.org *
***************************************************************************************
Comments