Guns N Roses - Youre Crazy Chords & Tabs

 

Youre Crazy Chords & Tabs

Guns N Roses Chords & Tabs

Version: 3 Type: Tab 0 ratings
1 star 2 stars 3 stars 4 stars 5 stars
comments

Youre Crazy Tab

   
You're Crazy
Appetite for Destruction
Guns N' Roses
Guitarist: Slash

hi its eric this is my first tab
add me on msn or email corrections to me at exkotyk@hotmail.com

Tuning down 1/2 step: Eb Ab Db Gb Bb Eb

Intro:
eb|--------|----------------------------------------------------|
Bb|--------|------------------------------------3--half---------|
Gb|--------|-----2----2--------2---------2------2---2^---(2)p0--|
Db|--5--6--|-----2----2--------2---------2------0---------------|
Ab|--5--6--|-----0----0--------0---------0---0------------------|
Eb|--3--4--|-3-------------3---------3--------------------------|

eb|-------------------------------------0-----------------------|
Bb|-------------------------------------0-----------------------|
Gb|-----2--2-----2------2---------------------------------------|
Db|-----2--2-----2------2---------------------------------------|
Ab|-----0--0-----0------0---------------------------------------|
Eb|--3--------3------3-----0--3--4--0---------------------------|

Verse: guitar 1
eb|--------|----------------------------------------------------|
Bb|--------|------------------------------------3--half---------|
Gb|--------|-----2----2--------2---------2------2---2^---(2)p0--|
Db|--5--6--|-----2----2--------2---------2------0---------------|
Ab|--5--6--|-----0----0--------0---------0---0------------------|
Eb|--3--4--|-3-------------3---------3--------------------------|

eb|-------------------------------------0-----------------------|
Bb|-------------------------------------0-----------------------|
Gb|-----2--2-----2------2---------------------------------------|
Db|-----2--2-----2------2---------------------------------------|
Ab|-----0--0-----0------0---------------------------------------|
Eb|--3--------3------3-----0--3--4--0---------------------------|

Verse: guitar 2 w/ wah
eb|-------------------------------------|-------------------------12-------|
Bb|-12h14-14-12-14---12-14--------------|----------------------12-----15^--|
Gb|-12h14-14-12-14---12-14------12------|-12h14-14-14-14-12h13--------full-|
Db|----------------------------------14-|-12h14-14-14-14-------------------|
Ab|-------------------------------------|----------------------------------|
Eb|-------------------------------------|----------------------------------|

Pre-Chorus:
eb|-----------------------------------------------------------------------|
Bb|-----------------------------------------------------------------------|
Gb|--7--7--7--7--7--x-x-7--7--7--7--7-x-x-7--7--7--7--7-x-x-7-7-7-7-7--5--|
Db|--7--7--7--7--7--x-x-7--7--7--7--7-x-x-7--7--7--7--7-x-x-7-7-7-7-7--5--|
Ab|--5--5--5--5--5--x-x-5--5--5--5--5-x-x-5--5--5--5--5-x-x-5-5-5-5-5--3--|
Eb|-----------------------------------------------------------------------|

eb|-------------------------------------------------------------|
Bb|-------------------------------------------------------------|
Gb|--9----------------------------------------------------------|
Db|--9-----7---7---9---9---7---7---9---9----7---7---9---7---7---|
Ab|--7----------------------------------------------------------|
Eb|--0----------------------------------------------------------|
pm        ....................................................

eb|------------------------------------|
Bb|------------------------------------|
Gb|--7--7--7--7--7--7--7--7---5--------|
Db|--7--7--7--7--7--7--7--7---5----5---|
Ab|--5--5--5--5--5--5--5--5---3----5---|
Eb|--------------------------------3---|

Fill 1:
eb|---------------------------------------------|
Bb|---------------------------------------------|
Gb|--7----7----7----7-----7-----7-----7-----7---|
Db|--7----7----7----7-----7-----7-----7-----7---|
Ab|--5----5----5----5-----5-----5-----5-----5---|
Eb|---------------------------------------------|

Chorus:
eb|-----------------------------------------------------------------------|
Bb|-----------------------------------------------------------------------|
Gb|---1/4 bend------------------------------------------------------------|
Db|------5^----------------------------------------------1/4------9--8--7-|
Ab|--7--------7---6------5---------------------------3---(3^)-----7--6--5-|
Eb|---------------------------3--3--4-----5---5---5------------5----------|
pm                          ......

eb|-------------------------------------------------------------|
Bb|-------------------------------------------------------------|
Gb|-------------------------------------------------------------|
Db|---------------------------------------------1/4-----9--8--7-|
Ab|---------------------------------------------3^------7--6--5-|
Eb|--2--2--3--3--2--2--3--3--4--4--3--3--3--3--------5----------|
pm ..........................................

eb|--------------------------------------------------------------------|
Bb|--------------------------------------------------------------------|
Gb|---------------------------------------------------------7-----(7)\-|
Db|----------------------------1/4---------9--8--7----7-----7-----(7)\-|
Ab|--3----3----------------3--(3^)---------7--6--5----5-----5-----(5)\-|
Eb|-------------5----5--5------------5---------------------------------|

eb|-----------------------|
Bb|-----------------------|
Gb|-----------------------|
Db|-----------------------|
Ab|--2--2---5--5---4--4---|
Eb|--0--0---3--3---2--2---|
[ Tab from: http://www.guitartabs.cc/tabs/g/guns_n_roses/youre_crazy_tab_ver_3.html ]
Interlude:
eb|------------------------------------------------------------------------|
Bb|------------------------------------------------------------------------|
Gb|-------------------9--(9)\------9------------9--(9)\-----9\----------9\-|
Db|-------------------9--(9)\------9------------9--(9)\-----9\----------9\-|
Ab|-2-----------------7--(7)\------7------------7--(7)\-----7\----------7\-|
Eb|-0--0--0--0--0--0-----------0---0---0--0--0-----------0--0--0--0--0-----|
pm    .............          ...      ........         ..     ........

eb|--------------------------------------5--\-----------5--\------5-\-------5-\-|
Bb|--------------------------------------5--\-----------5--\------5-\-------5-\-|
Gb|-------5-----4-----2---------------------------------------------------------|
Db|-------5-----4-----2-----------------------------------------------0-0-0-----|
Ab|-0--0--3-----2-----0---0--0--0--0--0--------0--0--0--------0-----------------|
Eb|-----------------------------------------------------------------------------|
pm ....                  ..............       ........      ...      ......

eb|-----------------||
Bb|-----------------||
Gb|-----------------||o
Db|----------5---4--||o
Ab|--0---0---5---4--||
Eb|----------3---2--||

Half time:
eb|---------------------------------------------------------------------------|
Bb|---------------------------------------------------------------------------|
Gb|----2--2-------------------------------------------------------------------|
Db|--2--2---2---2-----5---5-----------4---4-----------3---3-------------------|
Ab|-0---------0-----5---5---5---5---4---4---4---4---3---3---3--3--------------|
Eb|---------------3-----------3---2-----------2---1-----------1--000000000000-|
pm............................................................................

Solo: Guitar 2
eb|--------7----------7-----------7--------7--------------------|
Bb|-full---7------7---7---7-------7--------7----9^^^------------|
Gb|--9^-------9^--------------9^------9^--------9^^^------------|
Db|---------full--------------F-------F--------1/2 gradual------|
Ab|-------------------------------------------------------------|
Eb|-------------------------------------------------------------|
Solo: Guitar 1
eb|-------------------------------------------------------------|
Bb|-------------------------------------------------------------|
Gb|------------------------------------------------9------------|
Db|--7----9----9----7----9-------7----9--------7---9------------|
Ab|--7----9----9----7----9-------7----9--------7---7------------|
Eb|--5----7----7----5----7-------5----7--------5----------------|

eb|-------------------------------------------------------------|
Bb|-------------------------------------------------------------|
Gb|--9^-----7---------9----7--------7----7----------------------|
Db|-1/2----------9--------------9-------------9----7------------|
Ab|-----------------------------------------------------9-------|
Eb|-------------------------------------------------------------|

eb|-------------------------------------------------------------|
Bb|-------------------------------------------------------------|
Gb|-------------------------------------------------------------|
Db|--7---9---9---7---9-------7---9------7---7---------4---------|
Ab|--7---9---9---7---9-------7---9------7---7---------4---------|
Eb|--5---7---7---5---7-------5---7------5---5---------2---------|

eb|----------------------------------------7----------7-----7---|
Bb|-------------------------------------7-----7--10^----10------|
Gb|------------------------7h8-----7h8----------full------------|
Db|-------------7-------9-------9-------------------------------|
Ab|--7---9---9-------9------------------------------------------|
Eb|-------------------------------------------------------------|
pm...............

eb|-----------------------------------17----17----17----17----17----17-----|
Bb|-10p9p7-9--7----------------17^^^----(17)--(17)--(17)--(17)--(17)--(17)-|
Gb|---------------9^-p7--9^---full hold------------------------------------|
Db|-------------full---full------------------------------------------------|
Ab|------------------------------------------------------------------------|
Eb|------------------------------------------------------------------------|

eb|-17------------------7------------------------------------------------|
Bb|----17^---\----10^------10-----7h10p7----------7--10p7----------------|
Gb|---full------full----------------------10--9^----------9--9^----7---9-|
Db|-------------------------------------------1/2-----------full---------|
Ab|----------------------------------------------------------------------|
Eb|----------------------------------------------------------------------|

eb|-------------------------------------------------------------|
Bb|-------------------------------------------------------------|
Gb|--7----------------------------------------------------------|
Db|-----9---7------------------------P.H.-----------------------|
Ab|-------------9---8--8--7--7---5----7^------------------------|
Eb|-------------------------------------------------------------|
pm.................................

Outro: guitar 2
eb|--10^------------10^-----------------------------------------|
Bb|--13^----\-------13^----13\----------------------------------|
Gb|-full-----------full-----------------------------------------|
Db|--------------------------------------------1/4--------------|
Ab|------------------------------------------3--3^--------------|
Eb|--------------------------------5---5---5--------5-----------|
       guitar 1
eb|-------------------------------------------------------------|
Bb|-------------------------------------------------------------|
Gb|------------7--7------------7--------------------------------|
Db|-(7)--------7--7------------7---------------1/4--------------|
Ab|-(5)--------5--5------------5-------------3--3^--------------|
Eb|--------------------------------5---5---5--------5-----------|
Fill: 2
eb|-----------------------------------------|
Bb|--------------------------------1/2------|
Gb|-------------5----------------5--5^------|
Db|---7---7--7----------7--7---7----------7-|
Ab|-----------------------------------------|
Eb|-----------------------------------------|
Comments