Guns N Roses - Welcome To The Jungle Chords & Tabs

 

Welcome To The Jungle Chords & Tabs

Guns N Roses Chords & Tabs

Version: 2 Type: Tab 0 ratings
1 star 2 stars 3 stars 4 stars 5 stars
comments

Welcome To The Jungle Tab

  P.M.------------------------------------
e|----------------------------------------
B|----0-----0------0-------0-----0--------
G|--4---4-2---2---------------------------X4
D|---------------4---4--2-----------------
A|----------------------------2-----------
E|----------------------------------------
[ Tab from: http://www.guitartabs.cc/tabs/g/guns_n_roses/welcome_to_the_jungle_tab_ver_2.html ]
e|-------------------------------------------------------------
B|-------------------------------------------------------------
G|-------------------9------7----------------------------------
D|---9--------7------9------7---7-----9-9-9-9-9-9-9-9-9--------
A|---9--------7------7------5---7-----9-9-9-9-9-9-9-9-9--------
E|---7--------5-----------------5-----7-7-7-7-7-7-7-7-7--------
Comments