Guns N Roses - Used To Love Her Chords & Tabs

 

Used To Love Her Chords & Tabs

Guns N Roses Chords & Tabs

Version: 1 Type: Tab 0 ratings
1 star 2 stars 3 stars 4 stars 5 stars
comments

Used To Love Her Tab

   
"Used to love her "  
 Guns N' Roses 
 (GN'R Lies)

  D           A           G               A 
     I used to Love her,      but I had to Kill her    (repeat as necessary) 
  G                A      G              A      G                    D 
    She bitched so much,    she drove me nuts,  and now we're happier this way. 
[ Tab from: http://www.guitartabs.cc/tabs/g/guns_n_roses/used_to_love_her_tab.html ]
FIRST GUITAR SOLO:   
   D           A    G             A
|-------10-------------------------------------------------------|
|----------10----------------------------10----------------------|
|--9b11------[11]r9--7--9--------7--9--7----9b11--7--------------|
|-------hold-----------------------------------------------------|
|----------------------------------------------------------------|
|----------------------------------------------------------------|
  D                 A               G
|-------10-------10-------10----12b14-12-10-12-12------12-10-----|
|-10b12----10b12----10b12----10----------------------------------|
|----------------------------------------------------------------|
|----------------------------------------------------------------|
|----------------------------------------------------------------|
|----------------------------------------------------------------|
    A                           G
|-17----------------------------14-15-16-17----------------------|
|----17b19-17----15-17-15-17b19-------------17b19r17-15-17----15-|
|----------------------------------------------------------16----|
|----------------------------------------------------------------|
|----------------------------------------------------------------|
|----------------------------------------------------------------|
    A                           G
|-17b19-17-------------------------------------------------------|
|----------17b19r17-15-17----15----17b18r17-15-17----15----15----|
|-------------------------16----------------------16----16-------|
|----------------------------------------------------------------|
|----------------------------------------------------------------|
|----------------------------------------------------------------|
  A            G                    A
|-17b19-19-19-19r17------------17-------17-------17--------------|
|-------hold-------------17b19----17b19----17b19----19r17-15-17--|
|-----------------------------------------------hold-------------|
|----------------------------------------------------------------|
|----------------------------------------------------------------|
|----------------------------------------------------------------|
        D
|--------------------------------------------10------------------|
|----15-17-15----15----15-15\---------------(10)-----13----------|
|-16----------16-------------------12-10h11------11-(11)---------|
|----------------------------------------------------------------|
|----------------------------------------------------------------|
|----------------------------------------------------------------|

SECOND GUITAR SOLO:
|----------10-----------------------------------------------------|
|-------13---13------------10---10\8-8------8-----8/10-8-------10-|
|----11--------11--------9----9-----------7---7-------------------|
|-12------------------11----------------9----------------9/11-----|
|-----------------------------------------------------------------|
|-----------------------------------------------------------------|


|------------------------------------------------------------------------|
|-10--10----10\--------------------------------------------------7-7-----|
|-11---9--9h11\-------------------------------------7-7---9-9p7------9p7-|
|--------------------------------------7-7-9p7----------9----------------|
|------------------------5-7p5-x-x-7/9---------9-9-----------------------|
|-----------------5h7-x--------------------------------------------------|

|------------------------------------------------------------------------|
|-8-8p7---10-10-8p7-8-8p7---7h8p7---7-----7-10---------------------------|
|-------9-----------------9-------9---9fb------9fb-9p7---9fb-9~~~--7-9-7-|
|------------------------------------------------------9-----------------|
|------------------------------------------------------------------------|
|------------------------------------------------------------------------|


|------10-10------10-10------10-10------10-10------------------------|
|-10fb-------10fb-------10fb-------10fb-------10-rbp8--10-10--8-10p8-|
|--------------------------------------------------------------------|
|--------------------------------------------------------------------|
|--------------------------------------------------------------------|
|--------------------------------------------------------------------|


|------10-10------10-10------10-10------10-10------------------------|
|-10fb-------10fb-------10fb-------10fb-------10-rbp8--10-10--8-10p8-|
|--------------------------------------------------------------------|
|--------------------------------------------------------------------|
|--------------------------------------------------------------------|
|--------------------------------------------------------------------|

|------7-10--------------------------------------------------------------------------------|
|-10fb------r10p8-8-10-----8-10--------------------------------------10--------------------|
|----------------------9fb------r9p7---9p7---9hb-r9~~--7---7~~~-9-7-----r9-7---------------|
|------------------------------------9-----9-------------9-------------------9------7------|
|-------------------------------------------------------------------------------7/9---7hbr-|
|------------------------------------------------------------------------------------------|

Comments