Guns N Roses - The Godfather Theme...correct Chords & Tabs

 

The Godfather Theme...correct Chords & Tabs

Guns N Roses Chords & Tabs

Version: 1 Type: Tab 1 rating
1 star 2 stars 3 stars 4 stars 5 stars
comments

The Godfather Theme...correct Tab

[-------------------------------------------------------------------------------------------]
[--15--14-15-16--15-15------15-14-15-16--15-15------15-14-15-18-15-14-17--15-14b-----14b----]
[----------------------15----------------------14--------------------------------14b-----14-]
[-------------------------------------------------------------------------------------------]
[-------------------------------------------------------------------------------------------]
[-------------------------------------------------------------------------------------------]
[ Tab from: http://www.guitartabs.cc/tabs/g/guns_n_roses/the_godfather_themecorrect_tab.html ]
[----10-13-12-13-10-12-10---------------10-13-12-13-10-12-10--------------------------------]
[-10----------------------10-13p-10--10----------------------10/9/8-------------------------]
[-------------------------------------------------------------------------------------------]
[-------------------------------------------------------------------------------------------]
[-------------------------------------------------------------------------------------------]
[-------------------------------------------------------------------------------------------]

      thats all i know but it should be right	
Comments