Guns N Roses - Sweet Child Of Mine (intro) Chords & Tabs

 

Guns N Roses Chords & Tabs

Version: 1 Type: Tab 1 rating
1 star 2 stars 3 stars 4 stars 5 stars
comments

Sweet Child Of Mine (intro) Tab

ok i know the intro only what slash plays



-----------15--14--
----15-------------
------14-12--14--14
--12--------------- x2
-------------------
-------------------
[ Tab from: http://www.guitartabs.cc/tabs/g/guns_n_roses/sweet_child_of_mine_intro_tab.html ]
-----------15--14--
----15-------------
------14-12--14--14
--14--------------- x2
-------------------
-------------------

-----------15--14--
----15-------------
--12--14-12--14--14
------------------- x2
-------------------
-------------------

then the drums, bass, and second guitar comes in.

and so on and so fourth.
this is my first tab and im only 13 so yeah.
Comments