Guns N Roses - Sweet Child O Mine Chords & Tabs

 

Sweet Child O Mine Chords & Tabs

Guns N Roses Chords & Tabs

Version: 2 Type: Tab 0 ratings
1 star 2 stars 3 stars 4 stars 5 stars
comments

Sweet Child O Mine Tab

   
Guns n Roses, Sweet child o mine.
Tabbed by Peter Wolfendale, Peter@wolfend.demon.co.uk.
  

Guns n Roses
"Sweet Child O mine"
Appetite for Destruction

Okay, i made this primarily for the 2nd Guitar, rather than the lead. There are sh*tloads of tabs with guitar 1 (slash). So i made the one for the second guitar (Izzy) !! :) 

Hey, its my first tab, so go easy, and its from memory so theres prolly a few mistakes. Send me comments and stuff to wolfie@ironmaiden.com

Pete!

************************************************************************************


Guitar 1 Intro


{---------X2-------------}   {---------X2-------------}

e--------------15----14--------------------15----14-----|
B-----15--------------------------15--------------------|
G-------14-12----14----14------------14-12----14----14--|
D--12--------------------------14-----------------------|
A-------------------------------------------------------|
E-------------------------------------------------------|

 {---------X2-------------}  {---------X2-------------} 
                            
e--------------15----14--------------------15----14-----|
B-----15--------------------------15--------------------|
G-12----14-12----14----14-----------14-12----14----14---|
D------------------------------12-----------------------|
A-------------------------------------------------------|
E-------------------------------------------------------|


Guitar 2

  (D)
e----------------------------------------------]
B----------------------------------------------]
G----------------------------------------------]
D-0-4-4-5-7-9-7-5-4-0----5~--5----3------------]
A----------------------3---3--3-3---3-1--------]
E----------------------------------------------]

E-----------------------------------------------------]
B-----------------------------------------------------]
G-----------------------------------------------------]
D-2-2h3~---2-3-2---3-2--------------------------------]
A----------------3-----3------------------------------]
E-----------------------------------------------------]


[ Tab from: http://www.guitartabs.cc/tabs/g/guns_n_roses/sweet_child_o_mine_tab_ver_2.html ]
Verse guitar 2


                (D)
>         She's got  smile___ that it seems to me___
>                 (C)
>         re_minds___me of child - hood mem-o-ries,___
>                 (G)                                       (D)
>         Where ev__'ry - thing__was as the bright__blue sky.__
>         (D)
>         Now and then__When I see her face_______
>             (C)
>         she takes me a-way___ to that spe-cial place,____
>                  (G)
>         and if I started____ too___ long,
>                                         (D)
>         I'll pro-'ly break down and cry._______

>         (A5)     (B5)      (C5)                         (D)
>         Whoa,    Whoa,___  Whoa.___ sweet child o' mine.____
>         (A5)              (B5)(C5)                   (D)
>         Whoa,    oh,__oh,  oh,____sweet child  o' mine._____
> 



> 
>         (D)
>         She's got  eyes______of the bluest  skies,_________
>                (C)
>         as___if  they thought___of rain.______
>               (G)
>         I hate___to look in-to those eyes__________
>                                    (D)
>         and - see  an_____ounce of pain.________
>         (D)
>         Her hair remin-ds me of a warm____safe place______
>               (C)
>         where___as a chil-d I___'d hide,_____
>                 (G)
>         And___pray  for the thunder____and the rain_________
>                                         (D)
>         to quie_____tly pass_____ me  by._________



>         Where do we go?_____ Where do we go_____now?
>         Where do we go?_____ Where do we go?______
>         Where do we go____now?_____ Where do we go?______
>         Where do we go?_____  CHILD !
>         Where do we go____now? Where do we go______now,
>         Now?_________________Where do  we go?__________

 
:: Ultimate Guitar Archive :: 
http://www.ultimate-guitar.com 

Comments