Guns N Roses - Sweet Child O Mine Solo Chords & Tabs

 

Guns N Roses Chords & Tabs

Version: 1 Type: Tab 6 ratings
1 star 2 stars 3 stars 4 stars 5 stars
comments

Sweet Child O Mine Solo Tab

E-MAIL ME WITH QUESTIONS OR COMMENTS AT BANDITBOY_9@mugglenet.com
e--17b--17--15-|-14h15p14------15-|-14h15p14------------14--|
b--------------|-----------17-----|-----------17-16--17-----|
g--------------|------------------|-------------------------|
d--------------|------------------|-------------------------|
a--------------|------------------|-------------------------|
e--------------|------------------|-------------------------|

e---------------------------|----------------------|-------------------|
b--15b---12-----------------|-------------------13-|-12h13p12/10---13b-|
g-----------14b--12-11h12p11-|----------11-12-14---|-------------------|
d---------------------------|--14--14--------------|-------------------|
a---------------------------|----------------------|-------------------|
e---------------------------|----------------------|-------------------|

e------------------|---------15b--15-----------|----------------|---------|
b--13--12-12--12b--|--12---------------7b(1/2)-|--7-------------|---------|
g------------------|------14-------------------|-----9--8b(1/2)-|-8/11-9b-|
d------------------|---------------------------|----------------|---------|
a------------------|---------------------------|----------------|---------|
e------------------|---------------------------|----------------|---------|

Wah-Wah is turned on at this point

e---------------------------11------11-12/14-11-12-14/15-12-14-15-14p12-|
b------8p7----7-10/12-13p12----12-13------------------------------------|
g--8-9-----9------------------------------------------------------------|
d-----------------------------------------------------------------------|
a-----------------------------------------------------------------------| 
e-----------------------------------------------------------------------|

e-----14----12h14p12---12-------|-----------------------|---------------|
b--15----16----------15--15bp12-|--15b--15b--15b15p12---|-17b-17b--17b--|
g-------------------------------|---------------------14|----------17b--|
d-------------------------------|-----------------------|---------------|
a-------------------------------|-----------------------|---------------|
e-------------------------------|-----------------------|---------------|

e-------------------------------|-------------12------------------------|
b--17b---17b--17b-----17b-17p15-|-17---15b--------15-12-----------------|
g-------------------------------|------------------------14b-14p12-14---|
d-------------------------------|---------------------------------------|
a-------------------------------|---------------------------------------|
e-------------------------------|---------------------------------------|
[ Tab from: http://www.guitartabs.cc/tabs/g/guns_n_roses/sweet_child_o_mine_solo_tab.html ]
e----------------|--------------------------------------15-----15-----15-|
b----------------|----------------------15----------15--15-----15-----15-|
g--12-14---12-14-|-14b--12-14-12-14-14b---14-14b-12-14b----14b----14b----|
d----------------|-------------------------------------------------------|
a----------------|-------------------------------------------------------|
e----------------|-------------------------------------------------------|

e-------------------------------|----------------------------------------|
b-------------------------------|----------------------------------------|
g--14b-14-rb14p12----14p12---x-x|-12b(1/2)--------------12h14p12---------|
d-----------------14-------14x-x|-----------14p12-14-xx----------14------|
a-------------------------------|--------------------xx------------------|
e-------------------------------|----------------------------------------|

e--------------------------------------|----------------------------------
b--------------------------------------|-------------------------12-12----
g--12b(1/2)----------------12h14p12----|-12-12-------14-14p12-14----------
d-----------14p12-13-14-xx----------14-|-------14p12----------------------
a-----------------------xx-------------|----------------------------------
e--------------------------------------|----------------------------------

e--------------------|-12-12-------15-15p12--15--14-------12h15p12-----|
b--------15-15p12----|-------15p12------------------15--15---------15b-|
g--14p12----------14-|-------------------------------------------------|
d--------------------|-------------------------------------------------|
a--------------------|-------------------------------------------------|
e--------------------|-------------------------------------------------|

e------12-----------12----------12-----------12-------|
b--15b----15p12-------15p12-15b----15p12--------15p12-|
g---------------14-----------------------14b----------|
d-----------------------------------------------------|
a-----------------------------------------------------|
e-----------------------------------------------------|


e-----12--------12---------12----------12-----15-15b(2)--15~-12h15p12--12|
b--15b--15p12-----15p12-15b--15p12---12--15p12-----------------------15--|
g------------14b------------------14b------------------------------------|
d------------------------------------------------------------------------|
a------------------------------------------------------------------------|
e------------------------------------------------------------------------|

e-----12------------------------------------------------------||
b--15b--15p12-14b-14rb-12-14b--15-----------------------------||
g---------------------------------14b-14rb12--14p12-------12/-||
d-------------------------------------------14------14--------||
a-------------------------------------------------------------||
e-------------------------------------------------------------||

That's it.
Comments