Guns N Roses - Sweet Child O Mine Chords & Tabs

 

Sweet Child O Mine Chords & Tabs

Guns N Roses Chords & Tabs

Version: 2 Type: Bass Tab 0 ratings
1 star 2 stars 3 stars 4 stars 5 stars
comments

Sweet Child O Mine Bass Tab

Hey Guys I Play guitar but I wanted the bass INTRO part to it so I figured it out with 
my freind playing the melody.

Regular Tuning

INTRO
_____________________________________
[ Tab from: http://www.guitartabs.cc/tabs/g/guns_n_roses/sweet_child_o_mine_btab_ver_2.html ]
|-----------------4---------------------------------------|
|------4----5---7---7--5--4-------------5---------3--2----|
|---5-------------------------5-----3-----------3------3--|
|---------------------------------------------------------|


|---------------------------------------------------------|
|---3----2------------------5------------5--4---5----4--0-|
|-----------3----------5-------------5--------5-----------|
|---------------3-----------------------------------------|

____________________________________

Like I said it's just the intro but it is extremely cool.

Its 100% Correct just see your self... It's a easy lick to show off too!!
Comments