Guns N Roses - Somewhere Over The Rainbow Chords & Tabs

 

Somewhere Over The Rainbow Chords & Tabs

Guns N Roses Chords & Tabs

Version: 4 Type: Tab 0 ratings
1 star 2 stars 3 stars 4 stars 5 stars
comments

Somewhere Over The Rainbow Tab

   
/=slide
b=bend


---11-13-10---6-8-10-11-----8--11--6-----------------------------3-|
-----------------------------------------9-8-6-4-6-8-6-3-4-8/4-3---|
-8------------------------8-----------/5---------------------------| (2x)
-------------------------------------------------------------------|
-------------------------------------------------------------------|
-------------------------------------------------------------------|

-6---6---6---6---6----8----8----8----8---8--10--|
---8---8---8---8---10---10---10---10------------|
------------------------------------------------|
------------------------------------------------|
------------------------------------------------|
------------------------------------------------|
[ Tab from: http://www.guitartabs.cc/tabs/g/guns_n_roses/somewhere_over_the_rainbow_tab_ver_4.html ]
-6---6---6---6---6----8----8----8----8---9/-13b-|
---8---8---8---8---10---10---10---10------------|
------------------------------------------------|
------------------------------------------------|
------------------------------------------------|
------------------------------------------------|

---11-13-10---6-8-10-11-----8--11--6-----------------------------3-|
-----------------------------------------9-8-6-4-6-8-6-3-4-8/4-3---|
-8------------------------8-----------/5---------------------------| (2x)
-------------------------------------------------------------------|
-------------------------------------------------------------------|
-------------------------------------------------------------------|


---11-18-10---6-8-10-11-----8--11--6-------------------------------|
-----------------------------------------9-8-6-4-6-8-6-3-4-8/4-3---|
-8------------------------8-----------/5-------------------------3-|
-------------------------------------------------------------------|
-------------------------------------------------------------------|
Comments