Guns N Roses - So Fine Chords & Tabs

 

So Fine Chords & Tabs

Guns N Roses Chords & Tabs

Version: 3 Type: Tab 0 ratings
1 star 2 stars 3 stars 4 stars 5 stars
comments

So Fine Tab

   
Tabber:		Erkki Mela

Artist:		Guns N' Roses
Song:		So fine
Album:		Use your illusion II		

So basically the song has 3 different "riffs" plus the solo, except the
second "Story of a man..."-part has a small difference in the end.

comments and everything else to gynther_flynt@jippii.fi


G Gmaj7 Bmadd4 C

G Gmaj7 Bmadd4 C D


G   Gmaj7                 Bmadd4    C
    How could she look so fine
G   Gmaj7               Bmadd4        C   D    
    How could it be she might be mine
How could she be so cool
I've been taken for a fool
So many times


Em     Am
It's a story of a man
    C
Who works as hard as he can

Just to be a man

Who stands on his own

But the book always burns
As the story takes it turn
An leaves a broken man


How could she be so cool
How could she be so fine
I owe a favor to a friend
My friends they always come through for me  Yeah


Em     Am
It's a story of a man
    C
Who works as hard as he can

Just to be a man
                      Em
Who stands on his own
        Am
But the book always burns
       C
As the story takes it turn
                        Em
An leaves a broken man
                  Am
If you could only live my life
C                                         
You could see the difference 
             E  Am    C
you make to me     To me


D5                   E5
I'd look right up at night
G5                  D5
And all I'd see was darkness
[ Tab from: http://www.guitartabs.cc/tabs/g/guns_n_roses/so_fine_tab_ver_3.html ]
Now I see the stars alright
I wanna reach right up and grab one for you
When the lights went down in your house
Yeah that made me happy
The sweat I make for you
Yeah...I think you know where that comes from (guitar come on)


Solo:

|---------------------------------------------------------------------------|
|-/12---12--12--12--12/15---12--10/12-----12--12--12--12/15---12--12\10/12--|
|---------------------------------------------------------------------------|
|---------------------------------------------------------------------------|
|---------------------------------------------------------------------------|
|---------------------------------------------------------------------------|

|-------------15-15-15\14-14-14\12-12-12\10-10--10/14----10\9/10------------|
|-12/17--15-----------------------------------------------------------------|
|---------------------------------------------------------------------------|
|---------------------------------------------------------------------------|
|---------------------------------------------------------------------------|
|---------------------------------------------------------------------------|

|---------------------------------------------------------------------------|
|-12--12--12/15--12---12\10/12----12/17---17--------------------------------|
|---------------------------------------------------------------------------|
|---------------------------------------------------------------------------|
|---------------------------------------------------------------------------|
|---------------------------------------------------------------------------|


Well I'd look right up at night
And all I'd see was darkness
Now I see the stars alright
I wanna reach right up and grab one for you
When the lights went down in your house
Yeah that made me happy
The sweat I make for you
I think you know where that comes from


How could she look so good(So good)
How could she be so fine
How could she be so cool
How could it be she might be mine


End on G
Comments