Guns N Roses - Rocket Queen Chords & Tabs

 

Rocket Queen Chords & Tabs

Guns N Roses Chords & Tabs

Version: 5 Type: Tab 0 ratings
1 star 2 stars 3 stars 4 stars 5 stars
comments

Rocket Queen Tab

Guns n Roses
Rocket queen
Solo tab

e--------------------------------------------------------------------------------|
b--------------------------------------------------------------------------------|
g--------10-----13--12-------7h8h10-----8b-7-10----15b-13-15b-13-1313----17b-15--|
d---10---------------------------------------------------------------------------|
a--------------------------------------------------------------------------------|
E--------------------------------------------------------------------------------|

e--------------------------------------------------------------------------------------------------21-19--|
b----------------------------------------------------------------------------------16-21-19-21------------|
g---17b-15-15-15----19b-1717b-17b-----13/12-13/128h10-10-17---------------------------------------------|
d---------------------------------------------------------------------------------------------------------|
a---------------------------------------------------------------------------------------------------------|
E---------------------------------------------------------------------------------------------------------|

e------15/17-22-21/0-------|
b--------------------------|
g--------------------------|
d--------------------------|
a--------------------------|
E--------------------------|

Solo 2
[ Tab from: http://www.guitartabs.cc/tabs/g/guns_n_roses/rocket_queen_tab_ver_5.html ]
e--------------------------------------------------------------------------------------------------|
b--------------------------------------------------------------------------------------------------|
g-12b-10-12-8-10/12-10-8-----12-12p10----12-------------------12-10-----17-15-12-10----------------|
d-------------------------------10-------------13-----13-12-10/8/10---------13-----------------13--|
a--------------------------------------------------------------------------------------------------|
E--------------------------------------------------------------------------------------------------|

e---------------------------------------------------------------------------------------------|
b------------------------------------------------20-20p18-16-18-20-18-16--------16--------18--|
g--17-15-12-10-----20-19-17-15-12-10-----------------------------------17-17----17-17---------|
d------------------13-------------------------------------------------------------------------|
a---------------------------------------------------------------------------------------------|
E---------------------------------------------------------------------------------------------|


e-------------------------------------------------------------------------------------------|
b-20-18-16-18-20-18-16--------16---------18--------16---------------------18-16-15h16p15x4--|
g-----------------------------17-17----17-17----17-17-----17-15-----------------------------|
d-----------------------------------------------------------------------17-15-17------------|
a-------------------------------------------------------------------------------------------|
E-------------------------------------------------------------------------------------------|

e---15b-16-----|
b--------------|
g--------------|
d--------------|
a--------------|
E--------------|

Enjoy                            L.B          ROCK ON
Comments