Guns N Roses - Rocket Queen Chords & Tabs

 

Guns N Roses Chords & Tabs

Version: 1 Type: Tab 0 ratings
1 star 2 stars 3 stars 4 stars 5 stars
comments

Rocket Queen Tab

Rocket Queen 
Guns N' Roses 
Appetite for destruction

E|----------------------------------------------|---------------------|
B|----------------------------------------------|---------------------|
G|--11fb-(11)p9-11fb-(11)p9-11--11-11fb--9------|--------------9------| 
D|-------------------------------------------11-|---------9h11----11--|
A|----------------------------------------------|-----/11-------------|
E|----------------------------------------------|---------------------|

E|------------------------------------|-------------------------------|
B|------------------------------------|-------------------------------|
G|--11fb--------(11)p9-11fb------11fb-|-(11)-9-----8h9-8--------------|
D|------------------------------------|------------------9-----9---11-|
A|------------------------------------|--------------------9----------|
E|------------------------------------|-------------------------------|

E|-------------------------|-------------------------------------11hb-|
B|--------------------12fb-|--12------------12fb-(12)-12~-------------|
G|--11fb--11--11---9-------|------11fb---9----------------11hb-9------|
D|-------------------------|------------------------------------------|
A|-------------------------|------------------------------------------|
E|-------------------------|------------------------------------------|

E|--(11)----------------|-14fb-------14fb---(14)-p12-14--14fb----12---|
B|-------12-------------|------------------------------------14~------|
G|----------11-8hb------|---------------------------------------------|
D|------------------9---|---------------------------------------------|
A|--------------------9-|---------------------------------------------|
E|----------------------|---------------------------------------------|
[ Tab from: http://www.guitartabs.cc/tabs/g/guns_n_roses/rocket_queen_tab.html ]
E|-------------------------12-12-12----------------|
B|--(14)-12----14-14p12-------------12h14-14p12----|
G|----------13----------13----------------------13-|
D|-------------------------------------------------|
A|-------------------------------------------------|
E|-------------------------------------------------|

E|--14fb--14fb-(14)p12-14--14fb-12------|-----11-14-----------------|
B|---------------------------------14fb-|-(14)------14fb-p12----12--|
G|--------------------------------------|--------------------13-----|
D|--------------------------------------|---------------------------|
A|--------------------------------------|---------------------------|
E|--------------------------------------|---------------------------|

E|-------9-11-12-11-12p11p9---11---9h11p9--9--9----|
B|--9/12--------------------12--12-------12-----12-|
G|-------------------------------------------------|
D|-------------------------------------------------|
A|-------------------------------------------------|
E|-------------------------------------------------|

E|------------------------------------------------------------------|
B|--10-h12p10\9h10p9----9----------------------------------9h10h12--|
G|-------------------12---12p11h12p11p9h11-9-8-9-----8h9h11---------|
D|------------------------------------------------11----------------|
A|------------------------------------------------------------------|
E|------------------------------------------------------------------|

E|--9h12p11p9h12fb-----12--11-12-11----|----------------11----11hb--|
B|----------------------------------12-|------------12--------------|
G|-------------------------------------|--11~---11~-----------------|
D|-------------------------------------|----------------------------|
A|-------------------------------------|----------------------------|
E|-------------------------------------|----------------------------|

h: hammer on   fb: full bend 
p: pull-off    hb: half bend 
/: slide up    \: slide down 
(): let ring   ~: vibrato 

Comments