Guns N Roses - Rhiad And The Bedouins Chords & Tabs

 

Guns N Roses Chords & Tabs

Version: 1 Type: Tab 0 ratings
1 star 2 stars 3 stars 4 stars 5 stars
comments

Rhiad And The Bedouins Tab

   
Guns n Roses
Rhiad & The Bedouins


This song was performed by GnR at the house of blues (and may be on the upcoming chinese democracy)
I am just transfering this from www.gnrlies.com to here, with a few edits. I do not take credit for it.

(sounds like robin playing)
      p h p h
e|--2-0-2-0-2----x-x--|


main riff for axls "whuuoooows"
e|--------------------------------------------------------------------------|
B|--------------------------------------------------------------------------|
G|--------------------------------------------------------------------------|
D|------------2h4-2-h4------------------------------2h4--2--2-4-4-2---4---2-|
A|--4-4-4-4-4----------4-4-4-4-4--7-xx-7--4-4-4-4-4---------2-4-4-2-5-4-5-2-|
E|--2-2-5-2-2----------2-2-5-2-2--5-xx-5--2-2-5-2-2-------------------------|

during verse, theres slide instead of hammer on the d-string,
at end of verse theres some faster lead bit which (probably) buckethead plays

post-verse
lead & rhythm are squished into the following 2 tab lines.
the lead differs a little bit when they play the second "post-verse"
not hard to work out for yourself, but i couldnt be fucked

                  b1/2              b1\2
e|----------------------------------6------------------------------|
B|-----------\7-6~--------------\7-6---6-h8p6h8-p6-8-8~--p6--/1----|
G|--8--8-8------------5--5-5-5-------------------------------------|
D|--8--8-8------------5--5-5-5-------------------------------------|
A|--6--6-6------------3--3-3-3-------------------------------------|
E|-----------------------------------------------------------------|


e|----------------------------------------------------------------|-------|
B|----------\7-6~-b7----------------------------------------------|-------|
G|--8--8-8-----------\7~--/5-\7~---------------5~--3~----3\5h8p5--|--5----|
D|--8--8-8---------------------5--5-5-5-5-5-5--5--5-5-------------|--5-4--|
A|--6--6-6---------------------5--5-5-5-5-5-5--3--3-3-5--5-5-5-5--|--3-4--|
E|-----------------------------3--3-3-3-3-3-3---------3--3-3-3-3--|----2--|

[ Tab from: http://www.guitartabs.cc/tabs/g/guns_n_roses/rhiad_and_the_bedouins_tab.html ]
main riff played with mimicing lead
                                                  b1/4
e|--------------------------------------------------------------------------|
B|--------------------------------------------------------------------------|
G|--7--8--8--8--8-8---------------------------------------------------------|
D|--7--8--8--8--8-8--4-4-7--4-4-7-4~-----4-4-7-4-h7~----4-4-7-4-4-7-4~----4-|
A|--5--6--6--6--6-6---------------------------------------------------------|
E|--------------------------------------------------------------------------|

followed by D|--4-7-4-2-

at end of riff, to lead into verse rhythm they play
-------------|
--X-5-x-6----|
--X-4-x-5----| this is from now on played at end of each riff of the verse
--X-2-x-3----|
-------------|
-------------|

lead & rhythm packed into one tab line

               b.r        b1/2
e|--------15~--17-----~~-b19------|
B|--------------------------------|   solo continues
G|--\11---------------------------|
D|---7----5----3----2-2-2-2-------|
A|---5----3----1----0-0-0-0-------|
E|--------------------------------|

over solo thythm plays same main riff thing but in G

e|--------------------------------------------------------------------------|
B|--------------------------------------------------------------------------|
G|----------------------------6~--------------------------------------------|
D|--6-6-9-6-6-9-6~----6-6-9-6-6~----6-6-9-6-6-9-6~-----6-6-9-6-4~---6h9p6/4-|
A|--------------------------------------------------------------------------|
E|--------------------------------------------------------------------------|

e|-------------------------------------------------------------------------|
B|-------------------------------------------------------------------------|
G|----------------------------4~-------------------------------------------|
D|--4-4-7-4-4-7-4~----4-4-7-4-----4h7x7----4-4-7-4-4-7-4~---4-4-7-4-4------|
A|-------------------------------------------------------------------------|
E|-------------------------------------------------------------------------|

D|-2h42h4--

thats all I got. message from the creator:

"i cant make out the rest, but sounds like it all repeats
& my version of the live song only goes for 3.22 minutes,
so im pretty sure i dont have all of the song.
send all corrections, complaints & law suits to Dejan,"
Comments