Guns N Roses - Reckless Life Chords & Tabs

 

Reckless Life Chords & Tabs

Guns N Roses Chords & Tabs

Version: 1 Type: Tab 0 ratings
1 star 2 stars 3 stars 4 stars 5 stars
comments

Reckless Life Tab

Reckless life 
Guns N' Roses 
GN'R Lies / Live like a suicide 


E|------------------------|----------------------|-x----2-------| 
B|------------------------|----------------------|-x----3-------| 
G|------------------2-2-2-|----------------2-2-2-|-x----2-------| 
D|------------------2-2-2-|----------------2-2-2-|------0-------| 
A|---3qb-(0)-0------0-0-0-|-3qb-p0-0-------0-0-0-|--------------| 
E|--------------3fb-------|----------3fb---------|--------------| 

E|-----------------|-----------------------|--------------------| 
B|--5---x-(5)------|-----------------------|--------------------| 
G|--5---x--5-------|-----------------2-2-2-|--------------2-2-2-| 
D|--5---x--5-------|-----------------2-2-2-|--------------2-2-2-| 
A|--3---x--3---0-0-|-3qb-0-(0)-------0-0-0-|-3qb-p0-0-----0-0-0-| 
E|-----------------|------------3fb--------|----------3fb-------| 
[ Tab from: http://www.guitartabs.cc/tabs/g/guns_n_roses/reckless_life_tab.html ]
E|--3-------------|-2---x---2----------|------------------------| 
B|--3-------------|-3---x---3----------|------------------------| 
G|--0-------------|-2---x---2----------|------------------2-2-2-| 
D|--0-------------|-0---x---0----------|------------------2-2-2-| 
A|----------------|---------------0--0-|-3qb-(0)-0--------0-0-0-| 
E|--3-------------|--------------------|-----------3fb----------| 

E|-----------------------|-x----2------|------------------------| 
B|-----------------------|-x----3------|-5---x----(5)-----------| 
G|-----------------2-2-2-|-x----2------|-5---x-----5------------| 
D|-----------------2-2-2-|------0------|-5---x-----5------------| 
A|--3qb-p0-0-------0-0-0-|-------------|-3---x-----3------0-0---| 
E|------------3fb--------|-------------|------------------------| 

E|--------------------------|-----------------------|-3----|-2--| 
B|--------------------------|-----------------------|-3----|-3--| 
G|--------------------2-2-2-|-----------------2-2-2-|-0----|-2--| 
D|--------------------2-2-2-|-----------------2-2-2-|-0----|-0--| 
A|--3qb-0-(0)---------0-0-0-|-3qb-p0-0--------0-0-0-|------|----| 
E|-------------3fb----------|-----------3fb---------|-3----|----| 


Notation: 
x - dead note  qb - quarter bend 
p - pull-off   fb - full bend 



-Zappp---
Comments