Guns N Roses - Perfect Crime Chords & Tabs

 

Perfect Crime Chords & Tabs

Guns N Roses Chords & Tabs

Version: 2 Type: Tab 0 ratings
1 star 2 stars 3 stars 4 stars 5 stars
comments

Perfect Crime Tab

   
----------------------------------------------------------------------------
                     PERFECT CRIME - Guns N Roses  
----------------------------------------------------------------------------
tabbed by:cody armstrong(anti-goth)
e-mail-ski_bum_ron@msn.com


Gtr I (Eb Ab Db Gb Bb Eb) - Slash
gtr II (") - Izzy

 4/4

intro and for verse 1 and 2.
  Gtr I


|--------------------------|
|-8-----5------------------|
|-8-7-7-5------------------|         X 2
|-----7---5-7-7-7-5h7-7----|
|---------0-0-0-0-0-0-0----|
|--------------------------|




gtr II

------------------------------|
|-8p-7-5-5--------------------|
|----------7-5-7-7-7-5-7-0----|     X 2   
|-----------------------------|

|-----------------------------|
1st chorus:
C5     Bb5   G5  A5 G5 Bb  G5 A5   G5 C5    Bb5   G5
per - fect crime god  *** it it's a  per - fect crime

A5   G5  Bb  G5 A5  G5 C5    Bb5   G5   A5 G5 Bb  G5  A5   G5 C5  Bb5  G5
moth-er ***-er it's a per - fect crime  i   said     it's    per - fect

[bridge]

2nd chorus:
C5  Bb5     G5  A5  G5 Bb G5 A5 G5 C5   Bb5     G5     A5 G5  Bb  G5  A5  G5  C5
bad side of me don't ***   wit'da bad  side o' me stay   a - way    from the bad

Bb5      G5     A5 G5  Bb  G5 A5   G5 C5   Bb5  F5
side o' me don't      ***    wit' da bad side

Solo: 
 
|------------------------------------------------------------------------------------------20-17----------|
|-20b22r=20--17-20-17----17-20-17S16-22-16-24-16-17-20-17----17-20-17----17-20-17----17-19-------17-20-17-|
|---------------------20----------------------------------20----------20----------20----------------------|
|---------------------------------------------------------------------------------------------------------|
|---------------------------------------------------------------------------------------------------------|
|---------------------------------------------------------------------------------------------------------|

[ Tab from: http://www.guitartabs.cc/tabs/g/guns_n_roses/perfect_crime_tab_ver_2.html ]
  
|-20-----------------------20-17----20-17-19-20-19-17----19-19-17-19-17----17--------------------------|
|-----17-20-17----17-20-17-------19-------------------20----------------20----20-19-20-19-17-----------|
|--------------20----------------------------------------------------------------------------19-17-16--|
|------------------------------------------------------------------------------------------------------|
|------------------------------------------------------------------------------------------------------|
|------------------------------------------------------------------------------------------------------|


  
|----17--------------------------------------------------------------------------------------------------|
|-17----17-15----17-15--------------------------------------------------15-------------17-15----17----15-|
|-------------16-------16-14-16-16----16-----------------14----15----------16-14-16-14-------16----16----|
|----------------------------------14----15-14--------16----16----16-14----------------------------------|
|----------------------------------------------17--17----------------------------------------------------|
|--------------------------------------------------------------------------------------------------------|


 
|----------14-----17-17----|
|----17--------------------|
|-16----16----16-----------|
|--------------------------|
|--------------------------|
|--------------------------|

[3rd verse]

3rd chorus:
C5    Bb5    G5    A5   G5 Bb   G5  A5   G5    C5
won't ya let me be moth-er ***-er just let me be

A5 G5  Bb G5   A5    G5    C5  Bb5  G5  A5    G5      C5    G5
god  *** it better let me be don't ya know ya better let me be

C5     Bb5   G5  A5 G5 Bb  G5 A5   G5 C5    Bb5   G5
per - fect crime god  *** it it's a  per - fect crime

A5   G5  Bb  G5 A5  G5 C5    Bb5   G5   A5 G5  Bb  G5  A5   G5 C5 Bb5  G5
moth-er ***-er it's a per - fect crime don't cha know it's a  per - fect crime
|-------| /  slide up
| \  slide down
| h  hammer-on
| p  pull-off
| ~  vibrato
| +  harmonic
| x  Mute note


enjoy!
Comments