Guns N Roses - Patience Chords & Tabs

 

Patience Chords & Tabs

Guns N Roses Chords & Tabs

Version: 4 Type: Tab 0 ratings
1 star 2 stars 3 stars 4 stars 5 stars
comments

Patience Tab

album:guns n roses
title:patience solo
album:lies

this is the exact way this whole solo is done


----8/7-8-8/10-8-10/12---8/7-8-8/10-10/12-8/7-8-8/10-8--------------10/12-10-10-12/14-12-10-10----|
-----------------------8-------------------------------10/12-10-8-8-------------------------------|
--------------------------------------------------------------------------------------------------|
--------------------------------------------------------------------------------------------------|
--------------------------------------------------------------------------------------------------|
--------------------------------------------------------------------------------------------------|
[ Tab from: http://www.guitartabs.cc/tabs/g/guns_n_roses/patience_tab_ver_4.html ]
-----------------------------------------------^-----------^--------------------------------------|
-----5-8-------------------5-8-----------8/10-10-8-10---8-10-8-10---8-10-8-10/12-10-10-3/5-3------|
---7-----7-5-7---4-7-----7-----7-5-8-7/9--------------9-----------9-------------------------------|
---------------7-----7-5--------------------------------------------------------------------------|
--------------------------------------------------------------------------------------------------|
--------------------------------------------------------------------------------------------------|

--------------^---------------^-------------------------------------------------------------------|
--------------7-7-------------7-7-5-7----0-3------------------------------------------------------|
--4/2-----2-------4/2-----2----------7-2-0-2------------------------------------------------------|
------3/4---0---------3/4---0--------------0------------------------------------------------------|
--------------------------------------------------------------------------------------------------|
--------------------------------------------------------------------------------------------------|


                Well thats it enjoy it is very easy i can play it behind my head.
Comments