Guns N Roses - Paradise City Chords & Tabs

 

Paradise City Chords & Tabs

Guns N Roses Chords & Tabs

Version: 6 Type: Tab 0 ratings
1 star 2 stars 3 stars 4 stars 5 stars
comments

Paradise City Tab

   
Tune Down 1/2 Step
e=eb
b=bb
g=gb
d=db
a=ab
e=eb

e----------------------------------------------------------------|
b----------------------------------------------------------------|
g----------------------------------------------------------------|
d---------------------------------------3qb--5~--3--4--5~--3--4--|
a----5~--3--4--5~--3--4--5--3--5--3--5---------------------------|
e----------------------------------------------------------------|

e--------------------------------------------------------------------------|
b--------------------------------------------------------------------------|
g-------------------------------------------5--(5)--3--4--5--3--5--3--(3)--|
d----5--3--5--3--5--3qb--3~--1--2--3--0--3---------------------------------|
a--------------------------------------------------------------------------|
e--------------------------------------------------------------------------|

e------------------------------------------------------------------------|
b------------------------------------------------------------------------|
g--------------3-----5--3--------3hb------------3-----------------3------|
d----5--3--5~-----5--------5--3-------5--3--5~-----5--5~--(5)--3-----5~--|
a------------------------------------------------------------------------|
e------------------------------------------------------------------------|

e-----------------------------------------------------------|
b----5hbr--3--5hbr--3--5hbr--3--5~--6--x--5--(5)--3--(3qb)--|
g----5hbr--3--5hbr--3--5hbr--3--5~--5--x--5--(5)--3--(3qb)--|
d-----------------------------------------------------------|
a-----------------------------------------------------------|
e-----------------------------------------------------------|

e---------------------------------------------------------------------|
b---------------3-----------------3--(3)----------15b--15b--15b--15b--|
g---------------3-----3--2--------3--(3)------12----------------------|
d----5p--3--5~-----5--------5--3----------14--------------------------|
a---------------------------------------------------------------------|
e---------------------------------------------------------------------|

e---------------------------------------------------------------------|
b----15b--15--14--13------13--15--13h--15p--13/--11h--13p--11--(11h)--|
g---------------------15----------------------------------------------|
d---------------------------------------------------------------------|
a---------------------------------------------------------------------|
e---------------------------------------------------------------------|

e---------------------------------------------------------10--15-------|
b----13p--11/--10--11p--10------10h--11--10------10--13b----------18b--|
g---------------------------12---------------12------------------------|
d----------------------------------------------------------------------|
a----------------------------------------------------------------------|
e----------------------------------------------------------------------|

e----15----------------15------15-------15------15-------15-----------|
b--------18p--15--18b------18------18b------18------18b------18p--15--|
g---------------------------------------------------------------------|
d---------------------------------------------------------------------|
a---------------------------------------------------------------------|
e---------------------------------------------------------------------|

e---------15------15-------15--15-----------18b--(18)--|
b-------------18------18b----------18p--15-------------|
g----17b-----------------------------------------------|
d------------------------------------------------------|
a------------------------------------------------------|
e------------------------------------------------------|

e----3---------3---------3---------3---------|
b-------6p--3-----6p--3-----6p--3-----6p--3--|
g--------------------------------------------|
d--------------------------------------------|   x4
a--------------------------------------------|
e--------------------------------------------|

e-----------6--5h--6p--5----------------------------------------------------|
b----6/--8----------------8p--6--8--5h--6h--8--5h--6h--8--6p--5-------------|
g----------------------------------------------------------------7p--5--5b--|
d---------------------------------------------------------------------------|
a---------------------------------------------------------------------------|
e---------------------------------------------------------------------------|

e--------------------------------------------------|
b----3------3--------------------------------------|
g-------5b-----5b--5--3h--5p--3---------3----------|
d--------------------------------3h--5-----5~p--3--|
a--------------------------------------------------|
e--------------------------------------------------|

e-------------------------------------------------------------------------|
b-------------------------------------------------------------------------|
g-------------------------------------------------------------------------|
d----5p--3------------3---------------------------------------------3-----|
a-----------5--3h--5-----3--1----------------------1---------3/--5-----5--|
e------------------------------3--1hb--1--3--(3~)------3--x---------------|

e------------------------------------------------------------------3-----|
b----------------3-----------------------3----------------------3--------|
g----------------3-----------------3-----3------------3-----5b--------5--|
d----5--3-----------5p--3h--5~--5-----5-----5--5~--5-----5---------------|
a----------5--3----------------------------------------------------------|
e------------------------------------------------------------------------|

e----3-----------3-------------3----------3----------------3------|
b----3--3-----3-----5hbrrb--3-----5hb--3-----5shb--5hbrrb-----6b--|
g----------5--------5hbrrb--------5hb--------5shb--5hbrrb---------|
d-----------------------------------------------------------------|
a-----------------------------------------------------------------|
e-----------------------------------------------------------------|

e----3---------3--6p--3-----8br(8p)--6-----8p--6---------10b--10--|
b-------6b--6------------6--------------8---------8p--6-----------|
g-----------------------------------------------------------------|
d-----------------------------------------------------------------|
a-----------------------------------------------------------------|
e-----------------------------------------------------------------|

e----9--8-------8--9--10---------------------------------------|
b----------10b------------10hbr--(10p)--8-----10-----8--10-----|
g------------------------------------------9------9---------9--|
d--------------------------------------------------------------|
a--------------------------------------------------------------|
e--------------------------------------------------------------|

e---------------------10-------------------------------------------------|
b----8--10-----8--10------10-----8~--10-----8~--10-----8~--10-----8--10--|
g-----------9-----------------9----------9----------9----------9---------|
d------------------------------------------------------------------------|
a------------------------------------------------------------------------|
e------------------------------------------------------------------------|

e-----------------------------------------------------------------------|
b----8h--10--11--10h--11p--10p--8------10------8------10h--11p--10------|
g----------------------------------10------10-----12----------------12--|
d-----------------------------------------------------------------------|
a-----------------------------------------------------------------------|
e-----------------------------------------------------------------------|

e--------------------------------10h--12------10h--12h--13--|
b----10h--11h--13--10h--11h--13-----------13----------------|
g-----------------------------------------------------------|
d-----------------------------------------------------------|
a-----------------------------------------------------------|
e-----------------------------------------------------------|

e----15p--12h--13/--17--13h--15--15h--17------18--15h--17--15------15-------|
b-----------------------------------------18-------------------18------18b--|
g---------------------------------------------------------------------------|
d---------------------------------------------------------------------------|
a---------------------------------------------------------------------------|
e---------------------------------------------------------------------------|
[ Tab from: http://www.guitartabs.cc/tabs/g/guns_n_roses/paradise_city_tab_ver_6.html ]
e----15--------------------------------------------------------------------|
b--------18p--15--18p--15------15--18p--15------15------15-----------------|
g--------------------------18---------------18------18------17--(17/)--15--|
d--------------------------------------------------------------------------|
a--------------------------------------------------------------------------|
e--------------------------------------------------------------------------|

e--------x--18---------------------------------------12--13h--15p--13p--12--|
b-----------17--17~/--14----------------12h-13h--15-------------------------|
g-------------------------12h--14h--15--------------------------------------|
d----17---------------------------------------------------------------------|
a---------------------------------------------------------------------------|
e---------------------------------------------------------------------------|

e--------13/--12----------12----------------------------------------------|
b----15-----------15--13------15p--13--12--15--13p--12------14p--13p--12--|
g-------------------------------------------------------15----------------|
d-------------------------------------------------------------------------|
a-------------------------------------------------------------------------|
e-------------------------------------------------------------------------|

e-----------------------------------------------------------------------|
b--------15p--14p--13p--12-----------12p--10-----------10---------------|
g----14---------------------14p--12-----------12p--10------12p--10/--9--|
d-----------------------------------------------------------------------|
a-----------------------------------------------------------------------|
e-----------------------------------------------------------------------|

e-------------------------------------------------------------------------|
b-------------------------------------------------------------------------|
g----12p--10p--9------10p--9----------9-----------------------------------|
d-----------------12----------12--10-----12p--10--9--12--10hbr------10br--|
a---------------------------------------------------------------13--------|
e-------------------------------------------------------------------------|

e-----------------------------------------------------------------------|
b-----------------------------------------------------------------------|
g-----------------------------------------------------------------------|
d--------10--10----------10----------10--0------------------------------|
a----13-------------------------------------14h--16h--17--15h--16h--17--|
e----------------10--10------10--10-------------------------------------|

e--------------------------------------------------------------------------|
b--------------------------------------------------------------------------|
g--------------------------------15h--16h--17----------------15h--16h--17--|
d----15h--16h--17--15h--16h--17----------------15h--16h--17----------------|
a--------------------------------------------------------------------------|
e--------------------------------------------------------------------------|

e------------------------------------------------------------15-----------|
b----15h--16h--17----------------15h--16h--17--16h--17h--18------18b------|
g------------------15h--16h--17-------------------------------------------|
d-------------------------------------------------------------------------|
a---------------------------------------------------------------------15--|
e-------------------------------------------------------------------------|

e----------------------------------------|
b----------------------------------------|
g----------------------------------------|
d----------------------------------------|   x2
a----------------------------------------|
e----3--1--2--3--1--2--3--1--2--3--1--2--|

e----------------------------------------------------------------------------|
b----------------------------------------------------------------------------|
g----------------------------------------------------------------------------|
d----3--4--5--3--4--5--3--4--5--3--4--5--3--4--5--3--4--5--3--4--5--3--4--5--|
a----------------------------------------------------------------------------|
e----------------------------------------------------------------------------|

e----------------------------------------------------------------------------|
b----------------------------------------------------------------------------|
g-------------3------3sb--(3)--5hbr--(5p)--3h--5~--(5sb)--5--3--5-----3-3qb--|
d----3--4--5-----5~------------------------------------------------5---------|
a----------------------------------------------------------------------------|
e----------------------------------------------------------------------------|

e-----------------12--------------------------------------------------------|
b-------------15------15--12------------------------------------------------|
g--------14b------------------14--14--12------14------12~--12--12--14p--12--|
d----5~-----------------------------------14------14------------------------|
a---------------------------------------------------------------------------|
e---------------------------------------------------------------------------|

e------------------------------------------------------------------------|
b----------------------------------12--15--------------------------------|
g--------12--12~--12--14--12--14b----------14br--12------14------12--14--|
d----14----------------------------------------------14------14----------|
a------------------------------------------------------------------------|
e------------------------------------------------------------------------|

e------------------------------------------------------------------|
b------------13--14--15--------13--15--------13--15--------13--15--|
g----(14hb)--------------14hb----------14hb----------14hb----------|
d------------------------------------------------------------------|
a------------------------------------------------------------------|
e------------------------------------------------------------------|

e-----------------------------------------------|
b----------13--15--------13--15p--13--------13--|
g----14hb----------14hb---------------15hb------|
d-----------------------------------------------|
a-----------------------------------------------|
e-----------------------------------------------|
                                                           _
e---------------------------------------------------------  |
b----15p--13--------13--15p--13--------13--15p--13--------  |
g-------------15hb---------------15hb---------------15hb--  |
d---------------------------------------------------------  |
a---------------------------------------------------------  |
e---------------------------------------------------------  |
                                                            |
e--------------------------                                 |   x4
b----13--15--13--------13--                                 |
g----------------15hb------                                 |
d--------------------------                                 |
a--------------------------                                 |
e--------------------------                                 |
                                                           --

e------------------------------------------------------------------------|
b----15b--13h--15p--13/--12--12h--13p--12-----------12-------------------|
g------------------------------------------14p--12------14br--(14p)--12--|
d------------------------------------------------------------------------|
a------------------------------------------------------------------------|
e------------------------------------------------------------------------|

e--------------------------------------------------------------------------|
b--------------------------------------------------------------------------|
g--------14p--12-----------------------5hb--5hbr--(5p)--3--5p--3-----5hbr--|
d----14-----------12h--14--12br--(12)-----------------------------5--------|
a--------------------------------------------------------------------------|
e--------------------------------------------------------------------------|

e-----------------------------------------------------------|
b-----------------------------------------------------------|
g----(5p)--3-----5-----3qb-----3qb--------------------------|
d-------------5-----3-------5-------5--3--------------------|
a-----------------------------------------5--4--3--3hbr--1--|
e-----------------------------------------------------------|

e------------------------------------|
b------------------------------------|
g-----------------3--(3shb)--(3)-----|
d-------------5~------------------5--|
a----3--1--2----------------------5--|
e---------------------------------3--|

This solo is very hard.

NOTATION LEGEND: - 
p = pull off 
h = hammer on 
b = full bend 
hb = half bend
qb = quarter bend 
br = bend and release 
hbr = half bend and release 
qbr = quarter bend and release 
~ = tremelo
sb = slow bend 
sbr = slow bend and release 
rb = rebend 
x = muffled or muted strings 
/ = slide 

I may submit a Power Tab of the entire song in the future.
Comments