Guns N Roses - Out Ta Get Me Chords & Tabs

 

Out Ta Get Me Chords & Tabs

Guns N Roses Chords & Tabs

Version: 4 Type: Tab 0 ratings
1 star 2 stars 3 stars 4 stars 5 stars
comments

Out Ta Get Me Tab

   
Song: Out ta get me
Artist: Guns n' Roses
Date Tabbed: 27/4/05
Tabbed by: Samuel Smith

Here is out ta get me by one of the best bands in the world; Guns n' Roses. Well that's
what I think anyway! My tab sounds okay to me, but if you don't think so, listen to the
song and you'll find that it does sounds similar.
Anyway, here it is, ENJOY!

Tuning(low to high): Eb,Ab,Db,Gb,Bb,Eb.

Intro Riff:

|------------------------------|------------------------------|
|------------------------------|------------------------------|
|--0--3--0---------------5--3--|--0--3--0---------------5--3--|
|--0--3--0----3--5--5----5--3--|--0--3--0----3--5--5----5--3--|
|-------------3--5--5----3--1--|-------------3--5--5----3--1--|
|-----------3---------3--------|-----------3---------3--------|

Intro Solo:

|-------------------15-------------17b-|--17b-17b---------------------------|
|-18b--18b-~---18b-----18brp15---------|--17b-17b--x-x-17b--17r-17r-17brp15-|
|--------------18b-------------17------|-----------x-x-17b--17r-17r-17brp15-|
|--------------------------------------|------------------------------------|
|--------------------------------------|------------------------------------|
|--------------------------------------|------------------------------------|

|--------------------------------------|
|-----15-~-----------------------------|
|-----15-~-----------x\-x\-------------|
|-17-----------------------------------|
|--------------------------------------|
|--------------------------------------|

Verse:
 
P.M.==================================|                P.M. 
|---------------------------------------------------------------|-----------|
|---------------------------------------------------------------|-----------|
|------------------------5-----5-----3--0--3--------------------|-----%-----|
|-5----5----------5------5-----5-----3--0--3--5---3--5--------5-|-----------|
|-5----5----------5------3--3--3--3--1--------5---3--5--------5-|-----------|
|-3--3---3--3--3-----3------------------------3--------3--3-----|-----------|

 P.M.=|                                                 P.M.===|     P.M.===
|---------------------------------------------------------------------------|
|--------7----------5----------3---------1----0-1p2-------------------------|
|--------7----------5----------4---------2----------2p0----------5----------|
|-0--0-------0--0-------0--0-------0--0--------------------------5----------|
|--------------------------------------------------------3-3-3-3-3----3-3-3-|
|---------------------------------------------------------------------------|
 =|     P.M.====|    P.M.====|
|--------------------------------|------------------------------------------|
|--------------------------------|------------------------------------------|
|---3------------5------------5--|--------------------%---------------------|
|---3------------5------------3--|------------------------------------------|
|-3-3----3-3-3-3-3----3-3-3-3-3--|------------------------------------------|
|--------------------------------|------------------------------------------|

The chorus riff is the same as the intro riff.

Solo 1:

|------------------------------------|-------------------|---------|--------|
|--17b-17b-17b-17b-17b-17b--17-15-17-|--------17-17-15b--|---------|--------|
|--17b-17b-17b-17b-17b-17b--17-15-17-|--------17-17-15b--|---%-----|---%----|
|------------------------------------|-17-15-------------|---------|--------|
|------------------------------------|-------------------|---------|--------|
|------------------------------------|-------------------|---------|--------|
[ Tab from: http://www.guitartabs.cc/tabs/g/guns_n_roses/out_ta_get_me_tab_ver_4.html ]
|----------------------------------------------15-----18b-~-18-17-15-----18-|
|-x-18r-15-18-~-15-18-17brp15---15--------18b----18p15--------------18-17---|
|-----------------------------17--15----------------------------------------|
|-----------------------------------17-15-----------------------------------|
|---------------------------------------------------------------------------|
|---------------------------------------------------------------------------|

|-------------------15-----------------------------------------15-----15----|
|----------------------18-----------------------------18bp0-15b--15brb--15b-|
|-17rp15-15-17-17b--------17r-15-17-17r15-17p15-----------------------------|
|-----------------------------------------------17p15-----------------------|
|---------------------------------------------------------------------------|
|---------------------------------------------------------------------------|

|----18---------------------------------------------------------------------|
|-18b---18r-~~~----18-18-18-------17b--17brbr\------------------------------|
|-------18--~~~-17b- ------17r-15-17b--17brbr\-------17--17b-17b----17b-17b-|
|----------------------------------------------17-17-------------19---------|
|---------------------------------------------------------------------------|
|---------------------------------------------------------------------------|

|---------15---15-~~~~~-15-----------------------------15b-15-15r-12-15rp12-|
|------15b--15b--15b------15rp13-15-15b-13-15-13----------------------------|
|------------------------------------------------14-12----------------------|
|-19-19---------------------------------------------------------------------|
|---------------------------------------------------------------------------|
|---------------------------------------------------------------------------|
              P.M.=====================================|
|---------------------------------------------------------------------------|
|-15b-15brp13-13-13---------------------------------------------------------|
|------------------14-12-14-14-12--12-12------------------------------------|
|--------------------------------14-----14-12-12-12-10--10b-----------10-12-|
|-----------------------------------------------------12---12p10-12-12------|
|---------------------------------------------------------------------------|

|-------------------------------------------|-----------|----------|--------|
|--2br-0--5br-3-------2br-0--12br-10--------|-----------|----------|--------|
|--2br-0--5br-3-0-3-0-2br-0--12br-10-0-3-0--|-----%-----|----%-----|---%----|
|---------------0-3-0----------------0-3-0--|-----------|----------|--------|
|-------------------------------------------|-----------|----------|--------|
|-------------------------------------------|-----------|----------|--------|

|--------------13--|-----------------|-----------13--15-------|
|-12---15--13--16b-|-----------------|-12---15---16b-18b-~~~~-|
|-14b--17b-15b-----|--------%--------|-14b--17b---------------|
|------------------|-----------------|------------------------|
|------------------|-----------------|------------------------|
|------------------|-----------------|------------------------|

End Solo:

|-------------------------------|-----------|-----------15-~~~~~~~~~-|
|--17br-15----15---------10b-12-|-----------|--17---15---------------|
|--17br-15----15-12--12--10b-12-|-----%-----|--17---15---------------|
|----------17----------12-------|-----------|------------------------|
|-------------------------------|-----------|------------------------|
|-------------------------------|-----------|------------------------|

This is the end.
Comments