Guns N Roses - One In A Million Chords & Tabs

 

One In A Million Chords & Tabs

Guns N Roses Chords & Tabs

Version: 1 Type: Tab 0 ratings
1 star 2 stars 3 stars 4 stars 5 stars
comments

One In A Million Tab

   
One in a Million
Guns N' Roses GN'R Lies 
[E-1]      [E-2]       [D]        [C#]             [C]                [G(2)] EADGBE     EADGBE      EADGBE     EADGBE           EADGBE             EADGBE 022100     x7990x      x5770x     x4               x355xx             XX000X 

Strum[E-1]    (slide) [E-2]       [D]       [C#]            (play twice) fill)   (Main guitar riff) --------|----------------------------------------------------------||-------|-2-2h3p2-2-2---1-1----------------------------------------|
|-5-5-5-|-2-2-----2-2-2-0-0-0-0-3p0---0-0-0-0-----4-0--------------|
|-5-5-5-|-2-2h4p2-2-2-2-2-2-2-2-2---2-0-0-0-0---3---0--------------|
|-3-3-3-|---------------3-3-3-3-3---3-2-2-2-2-2-------3---3---3/5--|
|-------|-----------------------------3-3-----3-------1-0-1-0-1/3--| 

Correction (at the part you play the C chord in the verse it goes): 
|----------------------------------------------|
|------1--1---1--1-----------------------------|
|------0--0---0--0-----------------------------|
|------2--2--h3--2-----------------------------|
|------3--3---3--3-----------------------------|
|----------------------------------------------|

Addition: (the chorus) 
|----------------------------------------------|
|----------------------------------------------|
|---5-5-5--5---------7-7-----------------------|
|---5-5-5--5-5-5--5--7-7-7-7-7-9-10------------|
|---3-3-3--3-5-5--5--5-5-7-7-7-9-10------------|
|------------3-3--3------5-5-5-7--8------------|

Chorus:
C                     G         G(2)          D               A  
You're one in a million         {1,3. yeah, that's what you are___} 
                                {2. you're a shooting       star__} 
A5 A6 A5  A6  C                 G             D               A 
You're one in a million, babe   {you're a shooting star________} 
                                {you know that you are__} 
C                        G      G(2)  D             A          A5 A6 A5  A6 
Maybe someday we'll see you     before you make us cry 
C                        G               D              E 
you know we tried to reach you   but you were much to high_________ 
much to high  {1.2. much too high__________ much too high__                                                                                                        {3.   much too high___________ yeah_ yeah_ 
[ Tab from: http://www.guitartabs.cc/tabs/g/guns_n_roses/one_in_a_million_tab.html ]
 Solo: 
|--------------------------------------------------------------|
|--------------------------------------------------------------|
|-9~~~~~~~~~~~--7~~~~~~~~(7)~~~~-6-----7-------(7)~~~~~-6-7----|
|--------------------------------------------------------------|
|--------------------------------------------------------------|
|------------------------------------------7\---------------7\-|

|------------------------------------------------------------------7h8p7\5-|
|----------------------------------------------------------------8---------|
|------5---(5)----7h8p7p5-8-7-(7)-5-7-7-5------------------5-7/9-----------|
|-7---------------------------------------7-7~~~(7)~~~--7------------------|
|--------------------------------------------------------------------------|
|--------------------------------------------------------------------------|

|---------8-10-10fb-10fbr--(10)-8-10-8-10h11p10p(8)-10-8-12-11-11qb-10-10-8-----------------|
|-5--8/10--------------------------------------------------------------------10-10-(10)--10-|
|-------------------------------------------------------------------------------------------|
|-------------------------------------------------------------------------------------------|
|-------------------------------------------------------------------------------------------|
|-------------------------------------------------------------------------------------------|

|-7h8p7-------------------------------------------------------------------|
|-------10---8/10--6h8p6\5---6---5h6p5---5-----5--------------------------|
|----------9---------------7---7-------7---7/8---8\7--8p7-5-8p7-5-7-------|
|-------------------------------------------------------------------7-7-7-|
|-------------------------------------------------------------------------|
|-------------------------------------------------------------------------|

|-----------------------------------------------------------------------| 
|-----------------------------------------------------------------------|
|-5h7p5\4-5-4h5p4-4-----------------------------------------------------|
|-------------------5-3---3-3--0h2-----0h2p0----------0--------2--------|
|-----------------------------------3--------(0)-2-3-----3p2-----3p2----| 
|------------------------------------------------------------3-------3--|

|--------------------------------------------5---7--------8-(8)---8-----| 
|------------------------------------------5---5---5------------5---5---|
|----------------------------------------5-----------5------------------|
|-----------------------------------5-7---------------------------------|
|----3--5-3-5hb-5~~(5)~~-3-5-3-5/7--------------------------------------|
|-/5--------------------------------------------------------------------|

|-8/10-10-8-10/12--------------------------------------13--13---12---12---10-| 
|-----------------10-10-(10)~~~~~~~(10)~~~~~~~~~~~~~-------------------------|
|----------------------------------------------------------------------------|
|----------------------------------------------------------------------------|
|----------------------------------------------------------------------------|
|----------------------------------------------------------------------------| 

Comments