Guns N Roses - November Rain Chords & Tabs

 

November Rain Chords & Tabs

Guns N Roses Chords & Tabs

Version: 2 Type: Tab 2 ratings
1 star 2 stars 3 stars 4 stars 5 stars
comments

November Rain Tab

November Rain     Guns n Roses

Here are all the solos to November Rain, the main song solos + the great end solo.
Tune down a half step to play along with original.


My Rig:
Squire Telecaster
Marshall 50 watt amp
Morley wah wah

My Favourite Bands:
Primus
Clutch
No Doubt

My Favourite guitar websites:
http://www.tabclawer.com    - good tab site
http://www.nodoubt.com   - no doubt's official site
http://www.guitarandbass.co.uk   - brilliant guitar lesson site


Main song solos                                                         
D#||--------------8----------|---------------8----------|
A#||--8b------8b----10---8h6-|--8r-8r-----8b---10--8-5r-|
F#||-------------------------|--------------------------|
C#||-------------------------|--------------------------|
G#||-------------------------|--------------------------|
D#||-------------------------|--------------------------|


                                                  
--------8~-----------|---------------------------|
---------------5r-5b-|--5~-------------8---------|
---------------------|---------7h5-7/9---9/7--5--|
---------------------|---------------------------|
---------------------|---------------------------|
---------------------|---------------------------|


                                                  
--------------8----------|---------------8-8r----|
--8r------8b----10---8h6-|--8r-8r----8b----------|
-------------------------|-----------------------|
-------------------------|-----------------------|
-------------------------|-----------------------|
-------------------------|-----------------------|


                                                               
--10r-----------8h10h8----|--8----------13h12----13h12----13b-|
-----------------------10-|----11b------------13-------13-----|
--------------------------|-----------------------------------|
--------------------------|-----------------------------------|
--------------------------|-----------------------------------|
--------------------------|-----------------------------------|


                                                                
--13~------------12-13-12h13h12-|-------------12-13r-----13-12-|
--------------15----------------|--15~-----15------------------|
--------------------------------|------------------------------|
--------------------------------|------------------------------|
--------------------------------|------------------------------|
--------------------------------|------------------------------|


                             
--12b-12~---20~-------19-19-|
----------------------------|
----------------------------|
----------------------------|
----------------------------|
----------------------------|


                                                   
--19/17-17-17/15-15-15/13-13-13/12-12-12h13h12----|
-----------------------------------------------15-|
--------------------------------------------------|
--------------------------------------------------|
--------------------------------------------------|
--------------------------------------------------|


                                          
--12h13~------12-13-12h13h12-------12----|
-----------------------------15h13----13-|
-----------------------------------------|
-----------------------------------------|
-----------------------------------------|
-----------------------------------------|


                                                         
--------------------------------------------------------|
--15h17h15-13-15-12h13-12h13h12-------12----10----------|
--------------------------------14h12----12----10-12-10-|
--------------------------------------------------------|
--------------------------------------------------------|
--------------------------------------------------------|


                                     
------------------------------------|
---------------13~---------------13~|
--9~---12h10/9--------10h12h10/9----|
------------------------------------|
------------------------------------|
------------------------------------|


                                                          
------------------------15--------|----------------------|
-----------------15b-------17-15--|--13--------------13b-|
------10h12h10/9------------------|----------------------|
----------------------------------|----------------------|
----------------------------------|----------------------|
----------------------------------|----------------------|


                                                
----------------------|------------------------|
----------------------|--6--5------------------|
--------------5h7h5---|--------5-----------5h7-|
--------------------7-|-----------7------------|
----------------------|------------------------|
----------------------|------------------------|


                                               
-----------------------|----------------------|
----------6b-------6h5-|--6--5----------------|
-----------------------|--------5-------------|
--7--5-----------------|-----------7----------|
-----------------------|----------------------|
-----------------------|----------------------|


                                                 
-------------------------|----------------------|
-------------------------|--6--5----------------|
--5h7------------5h7h5---|--------5-------------|
---------------7-------7-|-----------7----------|
-------------------------|----------------------|
-------------------------|----------------------|


                                                    
------------------------|--------------------------|
------------------------|--------------------------|
--7----9----10----12----|--14----16----17----19----|
------------------------|--------------------------|
------------------------|--------------------------|
------------------------|--------------------------|


                                                      
---------------------20-|---------------------20-----|
--18~-----------20b-----|--22-20---------20b-----18--|
------------------------|----------------------------|
------------------------|----------------------------|
------------------------|----------------------------|
------------------------|----------------------------|


                                              
----------19b---------|----------------------|
--17~-----------------|------------17r---17b-|
----------------------|----------------------|
----------------------|----------------------|
----------------------|----------------------|
----------------------|----------------------|


                                 
--------------------------17----|
----------17-----17-18-20----18-|
--------------19----------------|
--------------------------------|
--------------------------------|
--------------------------------|


                                           
------------------------------------------|
--20-17-18-20-17r-17----------------------|
----------------------19r--17-19h17----17-|
------------------------------------19----|
------------------------------------------|
------------------------------------------|


                                         
----------------------------------------|
--20----------------20------------------|
-----17--17------17----17--17--17----17-|
--------------19------------------19----|
----------------------------------------|
----------------------------------------|


                                                   
--------------------------------------------------|
--20b-20--18h20h18h17-18-17h18h17----17-----20----|
----------------------------------19----19b----19-|
--------------------------------------------------|
--------------------------------------------------|
--------------------------------------------------|

[ Tab from: http://www.guitartabs.cc/tabs/g/guns_n_roses/november_rain_tab_ver_2.html ]
                                                           
--------------------|------------------|------------------|
--------------------|------------------|------------------|
------17~-----------|------------------|------------------|
--------------------|------------------|------------------|
--------------------|------------------|------------------|
--------------------|------------------|------------------|





End Solo
D#||--20--------19~-----20b-|------20--19--20--15------15--|
A#||------------------------|----------------------16------|
F#||------------------------|------------------------------|
C#||------------------------|------------------------------|
G#||------------------------|------------------------------|
D#||------------------------|------------------------------|


                                   
--16~---15h16h15----15~--------15-|
-----------------18---------18----|
----------------------------------|
----------------------------------|
----------------------------------|
----------------------------------|


                                                            
--16-15-16h15----------------15----------------------------|
--------------18-16----16-18----18-16-18-15-16-18-16-15-16-|
--------------------17-------------------------------------|
-----------------------------------------------------------|
-----------------------------------------------------------|
-----------------------------------------------------------|


                                                                  
----------------------------------------|--20--------19~-----20b-|
--15r-15r----15-16-18-15-16-18-15-------|------------------------|
----------17----------------------17~---|------------------------|
----------------------------------------|------------------------|
----------------------------------------|------------------------|
----------------------------------------|------------------------|


                                                                     
------20--19--20--15------15--|--16~---15h16h15----15~--------------|
----------------------16------|-----------------18---------15-16-18-|
------------------------------|-------------------------------------|
------------------------------|-------------------------------------|
------------------------------|-------------------------------------|
------------------------------|-------------------------------------|


                                                                      
--15-16-15h16h15-------15-------15-------------------------15-16h15---
-----------------18-16----16-18----18h16-18-16----15-16-18----------18
-----------------------------------------------17---------------------
----------------------------------------------------------------------
----------------------------------------------------------------------
----------------------------------------------------------------------


                                                                     
--15----------------------------------------------------------------|
-----18-16----15-16-18-15----16-15----------------------------------|
-----------17-------------17-------17-15-17-15h13h15h13h15h13-------|
--------------------------------------------------------------12~---|
--------------------------------------------------------------------|
--------------------------------------------------------------------|


                                                      
--20--------19~-----20b-|------20--19----------------|
------------------------|--------------20b-----15----|
------------------------|-------------------------17-|
------------------------|----------------------------|
------------------------|----------------------------|
------------------------|----------------------------|


                                                                
----------------------------|--------20~--------20-15-20-19-20-|
--15b-----15----18b-----16--|-----16---------------------------|
-------------17-------------|--17------------------------------|
----------------------------|----------------------------------|
----------------------------|----------------------------------|
----------------------------|----------------------------------|


                                                      
--15-18-16-18-15-16h15----15-------15----15----15----|
-----------------------18----16-18----16----16----16-|
-----------------------------------------------------|
-----------------------------------------------------|
-----------------------------------------------------|
-----------------------------------------------------|


                                                        
--20--------19~-----20b-|------20--19--20--15------15--|
------------------------|----------------------16------|
------------------------|------------------------------|
------------------------|------------------------------|
------------------------|------------------------------|
------------------------|------------------------------|


                                                                      
--16~-----15h16h15----15~--------15-|--18r-18b-------15----15--------|
-------------------18---------18----|-------------------16----16-----|
------------------------------------|----------------------------17~-|
------------------------------------|--------------------------------|
------------------------------------|--------------------------------|
------------------------------------|--------------------------------|


                                                                      
--------------------------------------------|--20--------19~-----20b-|
--------------------------------------------|------------------------|
----15-17-17-15-----------------------------|------------------------|
----------------17-16-15-15-15-13-15-13-----|------------------------|
----------------------------------------15--|------------------------|
--------------------------------------------|------------------------|


                                                                    
------20--19--20--15------15--|--16~-----15h16h15----15~--------15-|
----------------------16------|-------------------18---------18----|
------------------------------|------------------------------------|
------------------------------|------------------------------------|
------------------------------|------------------------------------|
------------------------------|------------------------------------|


                                                                
--15h16h18-15h16h18-15h16h18h16h15----16----15h16h15----15-----|
-----------------------------------18----18----------18----18r-|
---------------------------------------------------------------|
---------------------------------------------------------------|
---------------------------------------------------------------|
---------------------------------------------------------------|


                                                              
---------------------15-15r---------|--20--------19~-----20b-|
--16----18--16-18-16----------15r---|------------------------|
-----17-----------------------------|------------------------|
------------------------------------|------------------------|
------------------------------------|------------------------|
------------------------------------|------------------------|


                                                               
------20--19--20--15------15--|--16~-----15-------------------|
----------------------16------|-------------18----18r------16-|
------------------------------|----------------20-------------|
------------------------------|-------------------------------|
------------------------------|-------------------------------|
------------------------------|-------------------------------|


                                             
----------------------|--------------------||
--15r-------15~-------|----------15b-------||
----------------------|--------------------||
----------------------|--------------------||
----------------------|--------------------||
----------------------|--------------------||



Comments