Guns N Roses - Nightrain Chords & Tabs

 

Nightrain Chords & Tabs

Guns N Roses Chords & Tabs

Version: 3 Type: Tab 0 ratings
1 star 2 stars 3 stars 4 stars 5 stars
comments

Nightrain Tab

   
e|---------------------------------------------------------------------------|
B|-----------------8-----8-----7-----7----5~---------------------------------|
G|-----2-----------9-----9-----7-----7----5~---------------------------------|
D|-----2-----------7-----7-----7-----7----5~---------------------------------|
A|-----0---------------------------------------------------------------------|
E|---------------------------------------------------------------------------|
[ Tab from: http://www.guitartabs.cc/tabs/g/guns_n_roses/nightrain_tab_ver_3.html ]
e|---------------------------------------------------------------------------|
B|--------5-----5----3----3-----6~-----8-----8-------------------------------|
G|--------5-----5----4----4-----5~-----6-----6-----5---5---4---5---4---2---0-|
D|--------5-----5----5----5-----3~-----5-----5-----5---5---5---5---5---2---0-|
A|---------------------------------------------------------------------------|
E|---------------------------------------------------------------------------|

e|---------------------------------------------------------------------------|
B|---------------------------------------------------------------------------|
G|--2~-----------------------------------------------------------------------|
D|--2~-----------------------------------------------------------------------|
A|---------------------------------------------------------------------------|
E|---------------------------------------------------------------------------|

| /  slide up
| \  slide down
| h  hammer-on
| p  pull-off
| ~  vibrato
| +  harmonic
| x  Mute note
Comments