Guns N Roses - New Rose Chords & Tabs

 

New Rose Chords & Tabs

Guns N Roses Chords & Tabs

Version: 3 Type: Bass Tab 0 ratings
1 star 2 stars 3 stars 4 stars 5 stars
comments

New Rose Bass Tab

tabbed by Doug
standard tuning

(0:19)   4x
|----------------------------------|
|--4-4-6--2--2-2-2-2-2-2-2-2-2-2-2-|
|----------------------------------|
|----------------------------------|
[ Tab from: http://www.guitartabs.cc/tabs/g/guns_n_roses/new_rose_btab_ver_3.html ]
|-----------------------------------------------------------------------|
|-4-4-6--3--3-3-3-3-3-3-3-3-2--0--0-0-0-0-0-0-0-2--3--3-3-3-3-3-3-3-3-2-|
|-----------------------------------------------------------------------|
|-----------------------------------------------------------------------|

|--------------------------|
|--------------------------|
|-0--0-0-0-0-0-0-0-0-0-0-0-|
|--------------------------|

|----------------------------------|
|--4-4-6--2--2-2-2-2-2-2-2-2-2-2-2-|
|----------------------------------|
|----------------------------------|
Comments