Guns N Roses - Mama Kin Chords & Tabs

 

Mama Kin Chords & Tabs

Guns N Roses Chords & Tabs

Version: 2 Type: Tab 0 ratings
1 star 2 stars 3 stars 4 stars 5 stars
comments

Mama Kin Tab

Guns N' Roses
"Mama Kin"
From the 1988 Album GN'R Lies

GtrI = EADGBe
       (Slash)

Intro/Verse/Chorus/Main Riff

Upbeat

|--------------|--------------|-----------------|-------------------|
|--------------|--------------|-----------------|-------------------|
|--------------|--------------|-----------------|-------------------|
|-9--9-x-7h9---|--------------|-----------------|-------------------|
|-7--7-x-7-7-x-|-9--9-x-7h9-x-|-7--7-9-7-10-7-9-|--2--2-4-2-5-2-4-2-|
|------------x-|-7--7-x-7-7-x-|-5--5-5-5-5--5-5-|--0--0-0-0-0-0-0-0-|


Pre-Chorus

|---------------|---------------|    |-----------------|-----------------|
|---------------|---------------|    |-----------------|-----------------|
|---------------|---------------|    |-2-2-2-2-2-2-2-2-|-2-2-2-2-2-2-2-2-|
|---------------|-2-2-4-2-5-2-4-| X3 |-4-4-4-4-4-4-4-4-|-4-4-4-4-4-4-4-4-|
|-2-2-4-2-5-2-4-|-0-0-0-0-0-0-0-|    |-4-4-4-4-4-4-4-4-|-4-4-4-4-4-4-4-4-|
|-0-0-0-0-0-0-0-|---------------|    |-2-2-2-2-2-2-2-2-|-2-2-2-2-2-2-2-2-|
[ Tab from: http://www.guitartabs.cc/tabs/g/guns_n_roses/mama_kin_tab_ver_2.html ]
Solo
|-17--------17--------17--------17-17--------17--------17--------17--------17---------|
|----20p17-----20p17-----20p17--------20p17-----20p17-----20p17-----20p17-----20p17---|
|-------------------------------------------------------------------------------------|
|-------------------------------------------------------------------------------------|
|-------------------------------------------------------------------------------------|
|-------------------------------------------------------------------------------------|

|------------------------------------------------------------------------------17----20~~~|
|-17h20p17----17h20p17----17h20p17----17------------------------------------17----17-19~~~|
|----------20----------20----------20----20p19-17----19p17h18-19-17h18-17h18--------------|
|-------------------------------------------------19--------------------------------------|
|-----------------------------------------------------------------------------------------|
|-----------------------------------------------------------------------------------------|

Don't Forget To Rate!
Comments