Guns N Roses - Madagascar Chords & Tabs

 

Madagascar Chords & Tabs

Guns N Roses Chords & Tabs

Version: 1 Type: Tab 1 rating
1 star 2 stars 3 stars 4 stars 5 stars
comments

Madagascar Tab

Guns and Roses "Madagascar"

INTRO: Keyboard

e|------------------|-------------------|         
b|----------6-7-----|-----------6-9-----|
g|6-6-6-6h8~8^-6-6h5|-6-6-6-6h8~8^-6-8-5|
d|------------------|-------------------|
a|------------------|-------------------|
e|------------------|-------------------|

e|----------------------------------|
b|----------6-7---------------------|
g|6-6-6-6h8~8^-6-6h5-6-5-5h3-5-3-5h6|
d|-------------------6-6-----6-4----|
a|----------------------------------|
e|----------------------------------|

Guitar Chorus:

e|---------|
b|13~~~~~11|
g|---------| Play 3x
d|---------|
a|---------|
e|---------|
[ Tab from: http://www.guitartabs.cc/tabs/g/guns_n_roses/madagascar_tab.html ]
e|---------------------|
b|--------hold---------|
g|13~~~~~9----13~~~~~11|
d|---------------------|
a|---------------------|
e|---------------------|

"and it's never too late....."

e|11h13-11--11h13-9-------------|
b|------------------13h14-13--11|
g|------------------------------|
d|------------------------------|
a|------------------------------|
e|------------------------------|

Second Half of Song: Play with a Wha wha
e|-------------------------------------|
b|-------------------------------------|
g|-------------------------------------| Repeat
d|-------------------------------------|
a|6-6-6-6-6-6-6-6h8-8-8-8-8-8-8-8------|
e|--------------------------------6-x16|

Haven't figured out the solo yet. but it's coming
Comments