Guns N Roses - Live And Let Die Chords & Tabs

 

Live And Let Die Chords & Tabs

Guns N Roses Chords & Tabs

Version: 3 Type: Tab 0 ratings
1 star 2 stars 3 stars 4 stars 5 stars
comments

Live And Let Die Tab

tab by ghislaindevliegher@hotmail.com
standard tuning

play the whole thing 2x
[ Tab from: http://www.guitartabs.cc/tabs/g/guns_n_roses/live_and_let_die_tab_ver_3.html ]
e |--------------------------------------------------------------------
B |--------------------------------------------------------------------
G |--12--14--15----------7--9---10----------5-3------------------------
D |--12--14--15----------7--9---10----------5-3------------------------
A |--------------------------------------------------------------------
E |--------------------------------------------------------------------

e |--------------------------------------------------------------------
B |--------------------------------------------------------------------
G |--12--14--15----------7--9--10------5------3------------------------
D |--12--14--15----------7--9--10------5------3------------------------
A |--------------------------------------------------------------------
E |--------------------------------------------------------------------
Comments