Guns N Roses - Knockin On Heavens Door Chords & Tabs

 

Knockin On Heavens Door Chords & Tabs

Guns N Roses Chords & Tabs

Version: 5 Type: Tab 0 ratings
1 star 2 stars 3 stars 4 stars 5 stars
comments

Knockin On Heavens Door Tab

song: knockin' on heavens door
band: guns n roses
tabbed by jeff h.(y2jc_28@yahoo.com)
 		hey, this is the intro, solo, & outro. Enjoy!

intro:(clean passage)
e--3--3-----3|-------3-2h3-2|------0--------------|
b--3----3----|-----3--------|----1---1----------1-|
g--0------0--|---2----------|----------0-------0--|
d--0---------|-0------------|--0h2---------0h2----|
a--2---------|--------------|--0h3---------0h3----|
e--3---------|--------------|---------------------|
then strum chords with distortion

Solo:(distortion)
e----------------------------------------------------------|
b--------------------15-----------------------13s15--13-12-|
g--11s12--14^--12-14-----14^-12-12~---------12-------------|
d---------------------------------------s14----------------|
a----------------------------------------------------------|
e----------------------------------------------------------|

e---------------------------------------------15--------|
b--13-12-13s15~----13-12-13--13p12------12-13-----13-12-|
g-------------------------------------------------------|
d----------------------------------14~------------------|
a-------------------------------------------------------|
e-------------------------------------------------------|

e--------15-17^-17-17^-17^-15~---22^^-20-19-20--22^-20-19-20--19-----|
b----s17---------------------------------------------------------17~-|
g--------------------------------------------------------------------|
d--------------------------------------------------------------------|
a--------------------------------------------------------------------|
e--------------------------------------------------------------------|

e----------------------------------------|
b---15^~~--15^~~-------------------------|
g-----------------14^~~--14^~~---14--12~-|
d----------------------------------------|
a----------------------------------------|
e----------------------------------------|
[ Tab from: http://www.guitartabs.cc/tabs/g/guns_n_roses/knockin_on_heavens_door_tab_ver_5.html ]
outro:(distortion)
e----------------------------------------------------------|
b---20~-----20-19---20-19--17-19p17-17~---20-17--20-17--15-|
g----------------------------------------------------------|
d----------------------------------------------------------|
a----------------------------------------------------------|
e----------------------------------------------------------|

e------------15------------------15-----------------------|
b--13-15-12~----15--12-10----------15---10s12--10s12------|
g--------------------------12s14----------------------12~-|
d---------------------------------------------------------|
a---------------------------------------------------------|
e---------------------------------------------------------|

e----------15----17s19--17-15-17-15--20-19-20-22~--20-19-20-22-20-19-20-|
b--------15---15--------------------------------------------------------|
g--14s16----------------------------------------------------------------|
d-----------------------------------------------------------------------|
a-----------------------------------------------------------------------|
e-----------------------------------------------------------------------|

e--22^^-22^^-------22-----------------------------|
b------------20-22^---22-22--20--22^^r22^^r22-20~-|
g-------------------------------------------------|
d-------------------------------------------------|
a-------------------------------------------------|
e-------------------------------------------------|

e--------------------------------------------------------------|
b--20~~--20-19~--20-19--17-19p17-17~--20-17--20-17--13--15-12~-|
g--------------------------------------------------------------|
d--------------------------------------------------------------|
a--------------------------------------------------------------|
e--------------------------------------------------------------|

e---------------------------------------------|
b---------------------------------------------|
g--12^~~--12-11^~~--11-9^~~---7~--5s4--0~~~~~-|
d---------------------------------------------|
a---------------------------------------------|
e---------------------------------------------|
that's all.
Comments