Guns N Roses - Knockin On Heavens Door 2001 Solo Chords & Tabs

 

Knockin On Heavens Door 2001 Solo Chords & Tabs

Guns N Roses Chords & Tabs

Version: 1 Type: Tab 17 ratings
1 star 2 stars 3 stars 4 stars 5 stars
comments

Knockin On Heavens Door 2001 Solo Tab

   
 (The New) Guns N' Roses
 
 Tabbed by Andrew Robertson

 Live at Rock in Rio III
 
 
 Hey, this is my first tab, but it is 100% correct - Trust me!
 The Rock in Rio III version is more like the Bob Dylan version than
 the original Guns one, but its pretty much the same by the way of
 chords.

 I got this off www.AUDIOGALAXY.com 

 It's played in standard GnR tuning:
 down one half step (Eb Ab Db Gb Bb Eb) - One fret lower than 
 standard tuning. 

 Chords:

	G	D	Am	C

	3	2	0	0
	3	3	1	1
	0	2	2	0
	0	0	2	2
	2	0	0	3
	3	0	0	0

 The entire song is this chord progression:

	G	D	Am	Am
	
	G	D	C	C

 Nobody has tabbed the solo (well I found one, but it wasn't quite
 right), so I worked it out, and it seems to be 100% correct.

 This was done by Robin Finck, and should be played slowly, as well as
 bending the strings slowly when neccessary.

 Ok, here it is - it took me about an hour, but it was well worth it.



	    G	  D	     Am			  G	D	  C
[ Tab from: http://www.guitartabs.cc/tabs/g/guns_n_roses/knockin_on_heavens_door_2001_solo_tab.html ]
 e-----------------12-----10-8-7-8-----------12-14/15-15-14-10-10b(12)-
 B--8h10-10/12---------------------8---12/15---------------------------
 G---------------------------------------------------------------------
 D---------------------------------------------------------------------
 A---------------------------------------------------------------------
 E---------------------------------------------------------------------

			    G		    D		      Am

 e--(12)r10-10-8-7-8----------------10---------------------------------
 B-------------------8-----8-10b(12)---(12)r10~~~--8-10-8-10--10b(12)--
 G-----------------------9---------------------------------------------
 D---------------------------------------------------------------------
 A---------------------------------------------------------------------
 E---------------------------------------------------------------------

			       G	   D		 C

 e-------------------------8-10-10b(12)~~~(12)r10--10-8-7-7-8----------
 B--r10-10p8-8~~~~---10/12------------------------------------8~~~~~\--
 G---------------------------------------------------------------------
 D---------------------------------------------------------------------
 A---------------------------------------------------------------------
 E---------------------------------------------------------------------


 Right, there it is, in full. It should be 100% correct. If anyone has
 a tab for Chinese Democracy could they let me know.

 Cheers, Andy

 Any problems, you can e-mail me on slash86@lycos.co.uk

	Have fun with this song, it's a classic!!!
Comments