Guns N Roses - Its So Easy Chords & Tabs

 

Its So Easy Chords & Tabs

Guns N Roses Chords & Tabs

Version: 4 Type: Bass Tab 0 ratings
1 star 2 stars 3 stars 4 stars 5 stars
comments

Its So Easy Bass Tab

It's so easy
Guns and Roses
Appetite for Destruction
Tabbed by Marc Hind
(This is a fairly easy song to play so just listen for the bass)
/ slide

Intro

F:---99999999-99-9999-(times 4 then)/12-14-12-9---|
C:------------------------------------------------|
G:------------------------------------------------|
D: -----------------------------------------------|

Verse x4 (If u want it to sound stronger hit a 3 on the D every first zero)
F:---------------------------------|
C:---------------------------------|
G:---1-11--------------------------|
D:----------330-000-0000-----------|
                   (3030)alternative

Chorus x4
F:---------------------------|
C:---------------------------|
G:---2202320-----------------|
D:------------2-222222------|

Verse x4

Chorus x4

Post-Chorus (let notes ring)
(its so eaaaaassyyyyy when nothing seems to please me ........)
F:---------------------------------------------------------------------|
C:---------------------------------------------------------------------|
G:-------------2----0--------------------------22222222----00000000----|
D:---2----3------------22222222----33333333----------------------------|
[ Tab from: http://www.guitartabs.cc/tabs/g/guns_n_roses/its_so_easy_btab_ver_4.html ]
(Play this it really fast and rattle the fuck out of the string)
F:-----------------------------------------------|
C:-----------------------------------------------|
G:-----------------------------------------------|
D:---0000000000000000000000000000000000000000----|

Cool bitty
F:------------------------------------------|
C:------------------------------------------|
G:---5-5------------------------------------|
D:---------3320--00-00000000----------------|

"why don't you just.. Fuck off"

Verse x8 (this is when the guitar goes into a solo)

Chorus x4


Post-Chorus 2 (let notes ring) x2
(its so eaaaaassyyyyy when nothing seems to please me ........)
F:------------------------------------------------|
C:------------------------------------------------|
G:--------------2----0--------------2----0--------|
D:---2----3---------------2----3------------------| Then..


Post-Chorus 2 x2
(so come with me, don't ask me where cause I don't know.....)
F:---------------------------------------------------------------|
C:---------------------------------------------------------------|
G:-------------------------------------- 22222222----00000000----|
D:--- 22222222----33333333---------------------------------------|

Verse x8

Outro x4

F:--------------------------|
C:---8-7-5------------------|
G:---------7----------------|
D:-----------6-5-3-0--------|
Comments